PrimaNota.ru - самый крупный в мире бесплатный архив песенных текстов, аккордов, табулатур и нот


The Arcs - Cold Companion - аккорды и текст, таба, видео

Регистрация Запомнить меня
Войти через:  Facebook Google Twitter Vk Yandex Mail.ru

The Arcs - Cold Companion - аккорды и текст, таба, видео

Печатать
Просмотров: 189
Cold Companion
The Arcs
Intro
E|--7--8--7------------|
B|--7--------10--8--7--|
G|--7------------------|
D|---------------------|
A|---------------------|
E|---------------------|

Played over Em during verse
E|-----------------------|
B|-----------------------|
G|-----------4-----------|
D|--2--4--5-----5--2--0--|
A|-----------------------|
E|-----------------------|

Em
I was born a lover
                Bm
Everybody knows
Em
Just the way it is
                     Bm
Just the way it goes
Em
She's a cold companion
                  Bm
Like a desert rose
Em
The worst it is
                   Bm
The more she glows

E|------------------------------------------|
B|------------------------------------------|
G|------------------------------------------|
D|------------------------------------------|
A|--------5-----5-----7--5------------------|
E|--5-7-----7-----7--------7--5--7--0--0----|
  A                                         D                Em
                                           Woman are you under?
E|------------------------------------------|
B|------------------------------------------|
G|------------------------------------------|
D|------------------------------------------|
A|--------5-----5-----7--5------------------|
E|--5-7-----7-----7--------7--5--7--0--0----|
                                           Bm               A
                                           Woman are you under?
D             Em
Woman are you under?
Bm             Em
Woman are you under?

Em
I saw a light shining
                   Bm
On the edge of town
Em
I packed my things
                    Bm
And I ran it down
Em
Pass me and my hammer
                     Bm
I hold it in my hand
Em
We can never change
                    Bm
The universe's plan


E|------------------------------------------|
B|------------------------------------------|
G|------------------------------------------|
D|------------------------------------------|
A|--------5-----5-----7--5------------------|
E|--5-7-----7-----7--------7--5--7--0--0----|
  A                                         D                Em
                                           Woman are you under?
E|------------------------------------------|
B|------------------------------------------|
G|------------------------------------------|
D|------------------------------------------|
A|--------5-----5-----7--5------------------|
E|--5-7-----7-----7--------7--5--7--0--0----|
  Em                                         Bm11           A
                                           Woman are you under?
D             Em
Woman are you under?
D/E             A
Woman are you under?
D                Em
Woman are you under?
Bm11             A
Woman are you under?
D             Em
Woman are you under?
D/E             A
Woman are you under?
D                Em
Woman are you under?
D/E              Em
Woman are you under?
Добавлено: 27.02.2016
Другие материалы по этой песне:
  • Аккорды и текст

Страница создана 27.02.2016
http://primanota.ru/arcs/cold-companion-chords.htm
Привет, Гость.
Предлагаем пройти революционный курс по гитаре.
Подарок от PrimaNota.Ru, забирай!