PrimaNota.ru - самый крупный в мире бесплатный архив песенных текстов, аккордов, табулатур и нот


The Arcs - Chains Of Love - аккорды и текст, видео

Регистрация Запомнить меня
Войти через:  Facebook Google Twitter Vk Yandex Mail.ru

The Arcs - Chains Of Love - аккорды и текст, видео

Печатать
Просмотров: 107
Chains Of Love
The Arcs
  E7sus4  Em   Bm9   Bm7  D6/B   Am/F
E|--10-----7----9-----7----7------5------------|
B|--10-----8----7-----7----9------6------------|
G|--7------9----7-----7----7------5------------|
D|--9------9----7-----7----7------7------------|
A|--7------7----9-----9----9------7------------|
E|--7------7----7-----7----7------5------------|

Intro
   Em
E|---------10--12--10-----------10--12--10--|
B|--8--12----------------8--12--------------|
G|--9--------------------9------------------|
D|------------------------------------------|
A|------------------------------------------|
E|------------------------------------------|

Bm9 Bm7 D6/B Bm7   Bm9 Bm7 
D6/B Bm7  Em7 E7sus4 Em  Em7 
E7sus4  Em

E|-----------------------|
B|--10--8--7--12--10--8--|
G|-----------------------|
D|-----------------------|
A|-----------------------|
E|-----------------------|
Em
Makin' the notion will never swim
Bm7
Get you more work than you ever planned
Em
Give me some time now, to settle down
Bm7
I got a new world to wrap this head around
Am       Am/F
I had a cold companion
Am       Am/F
I was her net to land in
Am       Am/F
She knew what she was doin'
Am       Am/F
I felt a storm was brewin'
    N/C                                     Bm9 Bm7 D6/B Bm7
  Bm9 Bm7 D6/B Bm7
E|---------10--12--10-----------10--12--10--|
B|--8--12----------------8--12--------------|
G|--9--------------------9------------------|
D|------------------------------------------|
A|------------------------------------------|
E|------------------------------------------|
  (Chains           , the chains of love)

     E7sus4  Em     E7sus4  Em             
Bm9 Bm7 D6/B Bm7   Bm9 Bm7 D6/B Bm7
Chains,      the chains   of love (of love)
    E7sus4  Em     E7sus4  Em             
Bm9 Bm7 D6/B Bm7

Chains,      the chains    of love (of love)
   Bm
E|-----------------------|
B|--10--8--7--12--10--8--|
G|-----------------------|
D|-----------------------|
A|-----------------------|
E|-----------------------|

Em
Tell you the reason I go alone
Bm7
'Cause even the dead seem to do me wrong
Em
Tell you my secret, you tell me your lies
Bm7
Keep you clean just like an alibi
Am       Am/F
I had a cold companion
Am       Am/F
I was her net to land in
Am       Am/F
She knew what she was doin'
Am       Am/F
I felt a storm was brewin'
   N/C                                      Bm9 Bm7 D6/B Bm7
  Bm9 Bm7 D6/B Bm7
E|---------10--12--10-----------10--12--10--|
B|--8--12----------------8--12--------------|
G|--9--------------------9------------------|
D|------------------------------------------|
A|------------------------------------------|
E|------------------------------------------|
  (Chains           , the chains of love)

     E7sus4  Em     E7sus4  Em             
Bm9 Bm7 D6/B Bm7   Bm9 Bm7 D6/B Bm7
Chains,      the chains   of love (of love)
    E7sus4  Em     E7sus4  Em             
Bm9 Bm7 D6/B Bm7   Bm9 Bm7 D6/B Bm7
 E7sus4  Em     E7sus4  Em             Bm9 Bm7
D6/B Bm7   Bm9 Bm7 D6/B Bm7
Chains,      the chains   of love (of love)
    E7sus4  Em     E7sus4  Em             
Bm9 Bm7 D6/B Bm7   Bm9 Bm7 D6/B Bm7
Chains, the chains of love (of love)
   Am                   Am                   Ab
E|---------10--12--10-----------10--12--10--|
B|--8--12----------------8--12--------------|
G|--9--------------------9------------------|
D|------------------------------------------|
A|------------------------------------------|
E|------------------------------------------|
Добавлено: 27.02.2016
Другие материалы по этой песне:
  • Аккорды и текст

Страница создана 27.02.2016
http://primanota.ru/arcs/chains-of-love-chords.htm
Привет, Гость.
Предлагаем пройти революционный курс по гитаре.
Подарок от PrimaNota.Ru, забирай!