PrimaNota.ru - самый крупный в мире бесплатный архив песенных текстов, аккордов, табулатур и нот


Architecture In Helsinki - Souvenirs - текст песни, таба, видео

Регистрация Запомнить меня
Войти через:  Facebook Google Twitter Vk Yandex Mail.ru

Architecture In Helsinki - Souvenirs - текст песни, таба, видео

Печатать
Просмотров: 142
-------------------------------------------------------------------------------
			     Souvenirs - Architecture In Helsinki
-------------------------------------------------------------------------------
Tabbed by: maTT
Email: wakeguitarist900@hotmail.com

For the most part the song is based upon this, it repeats a good amount.

Tuning: EADGBe
Gtr 1:
e|---------------------------------------------------------------------------|
B|---------------------------------------------------------------------------|
G|---------------------------------------------------------------------------|
D|-----7-7-7-7-7-7-7-7-----( Keep Repeating)---------------------------------|
A|----5-5-5-5-5-5-5-5--------------------------------------------------------|
E|---------------------------------------------------------------------------|
			
Gtr 1:
e|---------------------------------------------------------------------------|
B|---------------------------------------------------------------------------|
G|---------------------------------------------------------------------------|
D|------7-7-7-7--------------------------------------------------------------|
A|-----5-5-5-5---7-7-7-7---9-9-9-9-----5-5-5-5-------------------------------|
E|--------------5-5-5-5---7-7-7-7-----3-3-3-3--------------------------------|
Gtr 2:
e|----------------5----------5-----------------------------------------------|
B|---------------------------------8-----7-----------------------------------|
G|--------------------------------------------7------------------------------| X2
D|---------------------------------------------------------------------------|
A|----------5-----------5----------------------------------------------------|
E|---------------------------------------------------------------------------|
Gtr 1:
e|---------------------------------------------------------------------------|
B|---------------------------------------------------------------------------|
G|---------------------------------------------------------------------------|
D|----7-7-7-7----------------------------------------------------------------|
A|---5-5-5-5---7-7-7-7---9-9-9-9---5-5-5-5-----------------------------------|
E|------------5-5-5-5---7-7-7-7---3-3-3-3------------------------------------|

Gtr 2:
e|----2-2------------------------------2-2-----------------------------------|
B|--------5-3-2--5-3-2--0--3-3--2----------5-3-2--5-3-2--0--3-3--2-----------|
G|--------------------------------2-----------------------------------2-4-2--|
D|---------------------------------------------------------------------------|
A|---------------------------------------------------------------------------|
E|---------------------------------------------------------------------------|

| /  slide up
| \  slide down
| h  hammer-on
| p  pull-off
| ~  vibrato
| +  harmonic
| x  Mute note
===============================================================================
Добавлено: 05.03.2012
Другие материалы по этой песне:
  • Аккорды и текст

Страница создана 05.03.2012
http://primanota.ru/architecture-in-helsinki/souvenirs-chords.htm
Привет, Гость.
Предлагаем пройти революционный курс по гитаре.
Подарок от PrimaNota.Ru, забирай!