PrimaNota.ru - самый крупный в мире бесплатный архив песенных текстов, аккордов, табулатур и нот


Architecture In Helsinki - Nothings Wrong - текст песни, бас-таба, видео

Регистрация Запомнить меня
Войти через:  Facebook Google Twitter Vk Yandex Mail.ru

Architecture In Helsinki - Nothings Wrong - текст песни, бас-таба, видео

Печатать
Просмотров: 131
Авторы: Architecture in Helsinki

NOTHING'S WRONG - Architecture in Helsinki
Tabbed By: CSC      Tuning: EADG

Riff 1 (0:22)
G|---------------------------------------------------------|
D|---------------------------------------------------------|
A|------------------------------------------------------5--|
E|--55555--7\33333---55555-7\33333---55555-7\33333---5>----|

Riff 2 (0:42)
G|------------------------------------------|
D|--------------------------55555-59-99-7\--|
A|--55555---55555---55555-------------------| x2
E|------------------------------------------|

Riff 3 (1:01)               3rd time
G|-----2-----4--------------|-----|
D|-------0-2---------5-4-2--|-----|
A|--------------------------|-0>--|  x3
E|--5>----------3>-3--------|-----|

Riff 2 x2 (1:19)
Riff 3 x3 (1:37)

Riff 4 (1:55)       
G|-----------------------------------------|
D|--------/10-10-9997---------/10-10-9997--|
A|--55555---------------55555--------------|
E|-----------------------------------------|

G|--------------------------------------|
D|--------/10-10-9997---55555-59-99-7\--|
A|--55555-------------------------------|   x2
E|--------------------------------------|

Outro (2:13)
G|-----5>-----5>-----5>---------------|
D|-----------------------5-5--9-9-----|
A|--5>-----5>-----5>------------------|
E|--------------------------------5>--|

G|-----5>-----5>-----5>---------------|
D|-----------------------5-5--999-7---|
A|--5>-----5>-----5>------------------|
E|------------------------------------|

Outro 2 (2:40)
G|-----------------------------------------------|
D|-----------------5-4-2------------------5-4-2--|
A|-----------------------------------------------|
E|-------------3-3-------5----5-5/7-3-3-3--------|

G|-----------------------------------------------|
D|-----------------5-4-2------------------5-4-2--|
A|-----------------------------------------------|
E|--5-5-5-/7-3-3-3----------5-5-5-7\3-3-3--------|

G|----------4------------------------4--------------|
D|------------------5-4-2--------------------5-4-2--|
A|--------/2-----------------------/2---------------|
E|--5-5-5-----3-3-3----------5-5-5-----3-3-3--------|

G|----------4-------------------|
D|------------------5-4-2-------|
A|--------/2----------------0>--|
E|--5-5-5-----3-3-3-------------|
Добавлено: 28.07.2012
Другие материалы по этой песне:
  • Аккорды и текст

Страница создана 15.03.2012
http://primanota.ru/architecture-in-helsinki/nothings-wrong-chords.htm
Привет, Гость.
Предлагаем пройти революционный курс по гитаре.
Подарок от PrimaNota.Ru, забирай!