PrimaNota.ru - самый крупный в мире бесплатный архив песенных текстов, аккордов, табулатур и нот


Architecture In Helsinki - Neverevereverdid - текст песни, бас-таба, видео

Регистрация Запомнить меня
Войти через:  Facebook Google Twitter Vk Yandex Mail.ru

Architecture In Helsinki - Neverevereverdid - текст песни, бас-таба, видео

Печатать
Просмотров: 148
Уроки эстрадного вокала в Санкт-Петербурге
-------------------------------------------------------------------------------
			    NEVEREVEREVERDID - Architecture in Helsinki
-------------------------------------------------------------------------------

Tabbed By : thefilmdude
e-mail: nathaniel.is.not@gmail.com

Tuning: Standard

The bass comes in at 2:54. Great little bass line.

G|---------------|---------------|---------------|---------------|
D|8-8---8-8-8---8|6-6---6-6-6---6|---------------|---------------|
A|---------------|---------------|6-----6-6-6---6|6-6---6-6-6---6|
E|---------------|---------------|---------------|---------------|
  1 . 2 . 3 . 4 . 1 . 2 . 3 . 4 . 1 . 2 . 3 . 4 . 1 . 2 . 3 . 4 .  

G|---------------|6-6---6-6-6---6|---------------|---------------|
D|8-8---8-8-8---8|---------------|---------------|---------------|
A|---------------|---------------|6-----6-6-6---4|6-6---4-6-6----|
E|---------------|---------------|----------------|--------------|
  1 . 2 . 3 . 4 . 1 . 2 . 3 . 4 . 1 . 2 . 3 . 4 . 1 . 2 . 3 . 4 .  

chorus:
G|---------------|---------------|---------------|---------------|
D|---------------|------6-6---6--|1313-(hold)----|16131613161311\|
A|1818--16161816\|4-4-------4----|---------------|---------------|
E|---------------|---------------|---------------|---------------|  (x2)
  1 . 2 . 3 . 4 . 1 . 2 . 3 . 4 . 1 . 2 . 3 . 4 . 1 . 2 . 3 . 4 . 

G|---------------|---------------|---------------|---------------|
D|----8-8-----8-8|----6-6-----6-6|---------------|---------------|
A|---------------|---------------|----6-6-----6-4|6-6---4-6-6----|
E|---------------|---------------|---------------|---------------|  
  1 . 2 . 3 . 4 . 1 . 2 . 3 . 4 . 1 . 2 . 3 . 4 . 1 . 2 . 3 . 4 . 

G|---------------|----6-6-----6-6|---------------|---------------|
D|----8-8-----8-8|---------------|---------------|---------------|
A|---------------|---------------|----6-------6-4|6-6---4-6-6----|
E|---------------|---------------|---------------|---------------|  
  1 . 2 . 3 . 4 . 1 . 2 . 3 . 4 . 1 . 2 . 3 . 4 . 1 . 2 . 3 . 4 . 

verse:
G|---------------|---------------|---------------|---------------|
D|----8-------8--|----6-------6--|---------------|---------------|
A|---------------|---------------|6---6---6---6--|6---6---6---6--|
E|---------------|---------------|---------------|---------------|  
  1 . 2 . 3 . 4 . 1 . 2 . 3 . 4 . 1 . 2 . 3 . 4 . 1 . 2 . 3 . 4 . 

G|---------------|6---6---6---6--|---------------|---------------|
D|8---8---8---8--|---------------|---------------|---------------|
A|---------------|---------------|6---6---6---6--|6---6---6---6--|
E|---------------|---------------|---------------|---------------|  
  1 . 2 . 3 . 4 . 1 . 2 . 3 . 4 . 1 . 2 . 3 . 4 . 1 . 2 . 3 . 4 . 


G|---------------|---------------|---------------|---------------|
D|8---8---8---8--|6---6---6---6--|---------------|---------------|
A|---------------|---------------|6---6---6---6--|6---6---6---6--|
E|---------------|---------------|---------------|---------------|  
  1 . 2 . 3 . 4 . 1 . 2 . 3 . 4 . 1 . 2 . 3 . 4 . 1 . 2 . 3 . 4 . 

G|---------------|6--------------|---------------|---------------|
D|8--------------|---------------|---------------|---------------|
A|---------------|---------------|6---6---6---6-4|6-----4-6------|
E|---------------|---------------|---------------|---------------|  
  1 . 2 . 3 . 4 . 1 . 2 . 3 . 4 . 1 . 2 . 3 . 4 . 1 . 2 . 3 . 4 . 

chorus:
G|---------------|---------------|---------------|---------------|
D|---------------|------6-6---6--|1313-(hold)----|16131613161311\|
A|1818--16161816\|4-4-------4----|---------------|---------------|
E|---------------|---------------|---------------|---------------|  (x2)
  1 . 2 . 3 . 4 . 1 . 2 . 3 . 4 . 1 . 2 . 3 . 4 . 1 . 2 . 3 . 4 . 

no bass for a bit...

chorus:
G|---------------|---------------|---------------|---------------|
D|---------------|------6-6---6--|1313-(hold)----|16131613161311\|
A|1818--16161816\|4-4-------4----|---------------|---------------|
E|---------------|---------------|---------------|---------------|  (x2)
  1 . 2 . 3 . 4 . 1 . 2 . 3 . 4 . 1 . 2 . 3 . 4 . 1 . 2 . 3 . 4 . 

outro:
G|---------------|
D|16131613161311\|
A|---------------|
E|---------------|  (x7)


| /  slide up
| \  slide down
| h  hammer-on
| p  pull-off
| ~  vibrato
| +  harmonic
| x  Mute note
===============================================================================
Добавлено: 13.03.2012
Другие материалы по этой песне:
  • Аккорды и текст

Страница создана 13.03.2012
http://primanota.ru/architecture-in-helsinki/neverevereverdid-chords.htm
Привет, Гость.
Предлагаем пройти революционный курс по гитаре.
Подарок от PrimaNota.Ru, забирай!