PrimaNota.ru - самый крупный в мире бесплатный архив песенных текстов, аккордов, табулатур и нот


Architecture In Helsinki - Its Almost A Trap - текст песни, таба, видео

Регистрация Запомнить меня
Войти через:  Facebook Google Twitter Vk Yandex Mail.ru

Architecture In Helsinki - Its Almost A Trap - текст песни, таба, видео

Печатать
Просмотров: 186
Уроки эстрадного вокала в Санкт-Петербурге
Third tab, enjoy!


Intro: 
e|-0--1------------------------------------------| 
B|-1--3------------------------------------------| 
G|-0--2--2--4------------------------------------| 
D|-2--0--3--5------------------------------------| 
A|-3-----3--5------------------------------------| 
E|-------1--3------------------------------------| 


C             Dm                        F   G
Steal all the chandeliers down your street
                C
And call it romance
                     Dm                             F   G
Stop kissing all the neighbors that your brother meets
                      C
Don't promise it's chance
                     Dm         F   G
And I've been saying later lately
                  C
So I'll colour a map
                     Dm                 F   G
I'll lead you to the mountains we'll meet
                C
It's almost a trap 



1:07 
e|----------------------------------------------| 
B|---------1-----3---------1--------------------| 
G|-------0-----2---2-----2-----4-4--------------| 
D|---(2)-----0---------3-----------5------------| 
A|-3--------------------------------------------| 
E|-------------------1-------3------------------| 
 
1:36 
e|----------------------------------------------| 
B|---------1-----3---------1--------------------| 
G|-------0-----2---2-----2-----4----4-----------| 
D|---(2)-----0---------3--------------5-5-3-----| 
A|-3--------------------------------------------| 
E|-------------------1-------3------------------| 
 
2nd guitar: (1:44) 
e|----------------------------------------------| 
B|----------------------------------------8-----| 
G|-5-5--5/2-0---------------------------5----5--| 
D|-------------5/7--5---5/7--5--5/7--0----------| 
A|--------------------7-------------------------| 
E|----------------------------------------------| 
 
End on C
Добавлено: 29.02.2012
Другие материалы по этой песне:
  • Аккорды и текст

Страница создана 29.02.2012
http://primanota.ru/architecture-in-helsinki/its-almost-a-trap-chords.htm
Привет, Гость.
Предлагаем пройти революционный курс по гитаре.
Подарок от PrimaNota.Ru, забирай!