PrimaNota.ru - самый крупный в мире бесплатный архив песенных текстов, аккордов, табулатур и нот


Architecture In Helsinki - Feather In A Baseball Cap - текст песни, бас-таба, видео

Регистрация Запомнить меня
Войти через:  Facebook Google Twitter Vk Yandex Mail.ru

Architecture In Helsinki - Feather In A Baseball Cap - текст песни, бас-таба, видео

Печатать
Просмотров: 134
FEATHER IN A BASEBALL CAP - Architecture in Helsinki
Tabbed By: CSC      Tuning: EADG

Riff 1 (0:15)
G|------------------------------------------|
D|--8-8-88-8--6-6-66-6----------------------|  x2
A|----------------------6-6-66-6--4-4-44-4--|
E|------------------------------------------|

Riff 2 (0:31)
G|----------------------------------------------|
D|--8-8-88-8--6-6-66-6--------------------------|
A|----------------------6-6-66-6--4-4-44-4------|
E|------------------------------------------4/--|

Riff 1 (0:39) x2

Riff 3 (0:54)
G|---------------------------------|
D|--8>--6>----------8>--6>---------|
A|----------6>--4>---------6>--4>--|
E|---------------------------------|

Riff 4 (1:09)
G|-----------------------------------------------|
D|--8-8-88-8--6-6-66-6----------------------6h7--|
A|----------------------6-6-66-6--4-4-44-4-------|
E|-----------------------------------------------|

Riff 1 (1:17)


Riff 5 (1:42)
G|----------------------------------------------|
D|------8-8-88-8--6-6-66-6----------------------|
A|--------------------------6-6-66-6--4-4-44-4--|
E|--4h5-----------------------------------------|

Riff 4 (1:51) *slide straight up to 8 from D6 instead of hitting the 7
Riff 3 (1:59)
Добавлено: 14.07.2012
Другие материалы по этой песне:
  • Аккорды и текст

Страница создана 14.06.2012
http://primanota.ru/architecture-in-helsinki/feather-in-a-baseball-cap-chords.htm
Привет, Гость.
Предлагаем пройти революционный курс по гитаре.
Подарок от PrimaNota.Ru, забирай!