PrimaNota.ru - самый крупный в мире бесплатный архив песенных текстов, аккордов, табулатур и нот


Architecture In Helsinki - Do The Whirlwind - текст песни, таба, бас-таба, видео

Регистрация Запомнить меня
Войти через:  Facebook Google Twitter Vk Yandex Mail.ru

Architecture In Helsinki - Do The Whirlwind - текст песни, таба, бас-таба, видео

Печатать
Просмотров: 190
Уроки эстрадного вокала в Санкт-Петербурге
Авторы: Architecture in Helsinki

                                DO THE WHIRLWIND
                     As recorded by Architecture In Helsinki
                      (From the 2005 Album IN CASE WE DIE)



Gtr I (E A D G B E) - 'woodblock'
Gtr II (E A D G B E) - 'synth'
Gtr III (E A D G B E) - 'trumpet'
Gtr IV (E A D G B E) - 'sitar'
Gtr V (E A D G B E) - 'piano'

    Gtr I
    E S S E E S E S E E   E S S E E S E S E E
||----8-8---5-5---5---5-|---8-8---5-5---5---5-|
||o---------------------|---------------------|
||----------------------|---------------------|
||----------------------|---------------------|
||o---------------------|---------------------|
||----------------------|---------------------|


  E S S E E S E S E E   E S S E E S E S E E  6x
|---8-8---5-5---5---5-|---8-8---5-5---5---5--||
|---------------------|---------------------o||
|---------------------|----------------------||
|---------------------|----------------------||
|---------------------|---------------------o||
|---------------------|----------------------||


     E S S  E  E    S  E    S E E    E S S  E  E    S  E    S  E  E
||-----8-8-----5----5-------5---5-|----8-8-----5----5-------5-----5-|
||o-------------------------------|---------------------------------|
||--------------------------------|---------------------------------|
||--------------------------------|---------------------------------|
||o-------------------------------|---------------------------------|
||--------------------------------|---------------------------------|
|
|   Gtr II
|    E E    E  S  E    S  E   Q      E E    E  S  E    S  E    E  E
||--15-----15-12-15---12-15-------|-15-----15-12-15---12-15---15-17-|
||o-------------------------------|---------------------------------|
||--------------------------------|---------------------------------|
||--------------------------------|---------------------------------|
||o-------------------------------|---------------------------------|
||--------------------------------|---------------------------------|


   E S S  E  E    S  E    S E E    E S S  E  E    S  E    S  E  E
|----8-8-----5----5-------5---5-|----8-8-----5----5-------5-----5-----||
|-------------------------------|------------------------------------o||
|-------------------------------|-------------------------------------||
|-------------------------------|-------------------------------------||
|-------------------------------|------------------------------------o||
|-------------------------------|-------------------------------------||
|
|  E E    E  S  E    S  E   Q      E E    E  S  E    S  E    E  E
|-12-----12----12------12-------|-12-----12----12------12---12-14-----||
|-----------15------15----------|-----------15------15---------------o||
|-------------------------------|-------------------------------------||
|-------------------------------|-------------------------------------||
|-------------------------------|------------------------------------o||
|-------------------------------|-------------------------------------||


    E S S E E S E   S E E    E  S S E E S E   S E E
||----8-8---5-5-----5---5-|-----8-8---5-5-----5---5-|
||o-----------------------|-------------------------|
||------------------------|-------------------------|
||------------------------|-------------------------|
||o-----------------------|-------------------------|
||------------------------|-------------------------|
|
|   Gtr III
|   E S S E Q     E         +E  S S E Q     Q     E
||------------------------|-------------------------|
||o-----------------------|-----------------5-------|
||--------5-7-------------|---------5-7-------------|
||----5-7---------7-------|-(7)-5-7---------------7-|
||o-----------------------|-------------------------|
||------------------------|-------------------------|


   E  S S E E S E   S E E    E  S S E E   S E   S E E
|-----8-8---5-5-----5---5-|-----8-8---5---5-----5---5----||
|-------------------------|-----------------------------o||
|-------------------------|------------------------------||
|-------------------------|------------------------------||
|-------------------------|-----------------------------o||
|-------------------------|------------------------------||
|
| +E  S S E Q     E         +E  S S E S S E   S S E S
|-------------------------|------------------------------||
|-------------------------|-----------------------------o||
|---------5-7-------------|---------5-----5-------5------||
|-(7)-5-7---------7-------|-(7)-5-7---5-7-----5-7---5----||
|-------------------------|-----------------------------o||
|-------------------------|------------------------------||


    E S S E E S E S E E   E S S E E S E S E E
||----8-8---5-5---5---5-|---8-8---5-5---5---5-|
||o---------------------|---------------------|
||----------------------|---------------------|
||----------------------|---------------------|
||o---------------------|---------------------|
||----------------------|---------------------|


  E S S E E S E S E E   E S S E E S E S E E
|---8-8---5-5---5---5-|---8-8---5-5---5---5--||
|---------------------|---------------------o||
|---------------------|----------------------||
|---------------------|----------------------||
|---------------------|---------------------o||
|---------------------|----------------------||


    E S S E   E S E    S E E   E   S S E   E S E   S E   E
||----8-8-----5-5------5---5-|-----8-8-----5-5-----5-----5-|
||o--------------------------|-----------------------------|
||---------------------------|-----------------------------|
||---------------------------|-----------------------------|
||o--------------------------|-----------------------------|
||---------------------------|-----------------------------|
|
|   Gtr IV
|   Q     S S E S S Q.         S S E   S S E S S E   S S
||--------5-5---3-3----------|-8p5-----5S3---3S1-----1S0---|
||o--------------------------|-----------------------------|
||---------------------------|-----------------------------|
||---------------------------|-----------------------------|
||o--------------------------|-----------------------------|
||---------------------------|-----------------------------|


  E S S E   E S E    S E E   E   S S E   E S E   S E   E
|---8-8-----5-5------5---5-|-----8-8-----5-5-----5-----5-----||
|--------------------------|--------------------------------o||
|--------------------------|---------------------------------||
|--------------------------|---------------------------------||
|--------------------------|--------------------------------o||
|--------------------------|---------------------------------||
|
| Q     S S E S S Q.         S S E   S S E S S E   S S
|-------5-5---3-3----------|-8p5-----5S3---3S1-----1S0-------||
|--------------------------|--------------------------------o||
|--------------------------|---------------------------------||
|--------------------------|---------------------------------||
|--------------------------|--------------------------------o||
|--------------------------|---------------------------------||


  Gtr V
  W          +H     Q  Q    Q  E Q  E H
|----------|--------------|----------------|
|----------|--------------|----------------|
|----------|--------------|----------------|
|-5--------|-(5)----5--3--|-2--------------|
|----------|--------------|------3----0----|
|----------|--------------|----------------|


  H    Q  W          +H     Q  Q    Q  E Q  E H      H    Q
|------------------|--------------|----------------|-----------|
|------------------|--------------|----------------|-----------|
|------------------|--------------|----------------|-----------|
|---------5--------|-(5)----5--3--|-2--------------|-----------|
|------3-----------|--------------|------3----0----|------3----|
|------------------|--------------|----------------|-----------|


    Gtrs III, V
    W          +H     Q  Q    Q  E Q  E H
||-----------|--------------|----------------|
||o----------|--------------|----------------|
||-----------|--------------|----------------|
||--5--------|-(5)----5--3--|-2--------------|
||o----------|--------------|------3----0----|
||-----------|--------------|----------------|


  H    Q  W          +H     Q  Q    Q  E Q  E H      H    Q   4x
|------------------|--------------|----------------|----------||
|------------------|--------------|----------------|---------o||
|------------------|--------------|----------------|----------||
|---------5--------|-(5)----5--3--|-2--------------|----------||
|------3-----------|--------------|------3----0----|------3--o||
|------------------|--------------|----------------|----------||
Добавлено: 13.07.2012
Другие материалы по этой песне:

Страница создана 17.04.2012
http://primanota.ru/architecture-in-helsinki/do-the-whirlwind-chords.htm
Привет, Гость.
Предлагаем пройти революционный курс по гитаре.
Подарок от PrimaNota.Ru, забирай!