PrimaNota.ru - самый крупный в мире бесплатный архив песенных текстов, аккордов, табулатур и нот


Architecture In Helsinki - Debbie - текст песни, бас-таба, видео

Регистрация Запомнить меня
Войти через:  Facebook Google Twitter Vk Yandex Mail.ru

Architecture In Helsinki - Debbie - текст песни, бас-таба, видео

Печатать
Просмотров: 185
Уроки эстрадного вокала в Санкт-Петербурге
Intro:(bass comes in at :18)

|-------------|
|444-222------|
|-------44-22-|
|------------2| x8

(:36)
|-----4h6-------4-4/0-----------|
|-4-4----2-2-2h4----------------|
|---------------------7/222-7/22|
|-------------------------------| x2

Back To Intro(:54)

|-------------|
|444-222------|
|-------44-22-|
|------------2| x8

Chorus(1:12)Play all notes staccato

 ssssssssssssssssssssssssssssssss
|--------------------------------|
|4444444422222222----------------|
|----------------2222222222222222|
|--------------------------------|

Back To Intro

|-------------|
|444-222------|
|-------44-22-|
|------------2| x8

[Horn Solo]

Bass Back in At 1:56
(hold last note of each triplet longer then the other two notes)

|------------------|
|-444--2-2---------|
|----------222--222|
|------------------|


|------------------|
|-444--222---------|
|----------222--222|
|------------------| x3


Chorus [Once]
 ssssssssssssssssssssssssssssssss
|--------------------------------|
|4444444422222222----------------|
|----------------2222222222222222|
|--------------------------------|
Добавлено: 10.06.2012
Другие материалы по этой песне:
  • Аккорды и текст

Страница создана 24.05.2012
http://primanota.ru/architecture-in-helsinki/debbie-chords.htm
Привет, Гость.
Предлагаем пройти революционный курс по гитаре.
Подарок от PrimaNota.Ru, забирай!