PrimaNota.ru - самый крупный в мире бесплатный архив песенных текстов, аккордов, табулатур и нот


Architects - Feather of Lead - текст песни, таба, видео

Регистрация Запомнить меня
Войти через:  Facebook Google Twitter Vk Yandex Mail.ru

Architects - Feather of Lead - текст песни, таба, видео

Печатать
Просмотров: 40
Уроки эстрадного вокала в Санкт-Петербурге
-------------------------------------------------------------------------------
                             Feather Of Lead - Architects
-------------------------------------------------------------------------------
Tabbed by: Obsimyx                                          Tuning: C# Standard

0:00
(feedback and intro chords)
0:08
c#|-----7-7-----7-7-----7-7-----7-7-----7-7-----7-7-----7-7-----7-7-----7-7-----7-7-----7-7-----7-7-|
G#|-8-8-8-8-8-8-8-8-----7-7-----7-7-----7-7-----7-7-----7-7-----7-7-----7-7-----7-7-----7-7-----7-7-|
E |-9-9-9-9-9-9-9-9-8-8-8-8-8-8-8-8-8-8-8-8-8-8-8-8-8-8-8-8-8-8-8-8-8-8-8-8-8-8-8-8-8-8-8-8-8-8-8-8-|
B |-9-9-9-9-9-9-9-9-9-9-9-9-9-9-9-9-9-9-9-9-9-9-9-9-9-9-9-9-9-9-9-9-9-9-9-9-9-9-9-9-9-9-9-9-9-9-9-9-|
F#|-7-7-7-7-7-7-7-7-9-9-9-9-9-9-9-9-9-9-9-9-9-9-9-9-9-9-9-9-9-9-9-9-9-9-9-9-9-9-9-9-9-9-9-9-9-9-9-9-|
C#|-----------------7-7-7-7-7-7-7-7-7-7-7-7-7-7-7-7-7-7-7-7-7-7-7-7-7-7-7-7-7-7-7-7-7-7-7-7-7-7-7-7-|

c#|-------------------------------------------------|x    x
G#|-11-11-11-11-11-11-11-11-11-11-11-11-11-11-11-11-| x  x
E |-12-12-12-12-12-12-12-12-12-12-12-12-12-12-12-12-|  xx
B |-12-12-12-12-12-12-12-12-12-12-12-12-12-12-12-12-|  xx 
F#|-10-10-10-10-10-10-10-10-10-10-10-10-10-10-10-10-| x  x
C#|-------------------------------------------------|x    x     2(on second time slide down after last chord)

0:31(bridge)
c#|-----------------------------------------------------------------------------------|
G#|----------------11--11-----11--11--11-----------------/11--11--11--11\-------------|
E |-4---4---4------11--11-----11--11--11-----4---4---4---/11--11--11--11\--2--2--2--2-|
B |-2---2---2------9---9------9---9---9------5---5---5---/9---9---9---9-\--3--3--3--3-|
F#|-2---2---2---00-10--10--00-10--10--10-----5---5---5---/10--10--10--10\--4--4--4--4-|
C#|-0---0---0---00---------00-------------0--3---3---3---------------------0--0--0--0-| x2
                **         **                            

0:43(breakdown)
c#|-------------------------------------------------------------------------------|
G#|--------------------------------/11--11--------------/11--11--11--11\----------|
E |--------------------------------/11--11--------------/11--11--11--11\--2--2--2-|
B |-2------------------------------/9---9---------------/9---9---9---9-\--3--3--3-|
F#|-2----2-2-2-2-2-2-2-2-2-2-222---/10--10--2-2-2-2-222-/10--10--10--10\--4--4--4-|
C#|-0--0-0-0-0-0-0-0-0-0-0-0-000-0----------0-0-0-0-000-------------------0--0--0-|
         * * * * * * * * * * ***            * * * *              

c#|---------------------------------------------------------------------|
G#|--------------------------------/11--11------------------------------|
E |--------------------------------/11--11------------------------1-----|
B |-2------------------------------/9---9---------------------------3---|
F#|-2----2-2-2-2-2-2-2-2-2-2-222---/10--10--2-2-2-2-222-2-2---2-4-----4-|
C#|-0--0-0-0-0-0-0-0-0-0-0-0-000-0----------0-0-0-0-000-----2-----------|
         * * * * * * * * * * ***            * * * * 

0:55
c#|-------------------------------------5-5-----5-5-----5-5-----5-5-3-3-3-3-3-3-3-3------------------------|
G#|-7-7-7-7-7-7-7-7-7-7-7-7-7-7-7-7-----5-5-----5-5-----5-5-----5-5-4-4-4-4-4-4-4-4------------------------|
E |-8-8-8-8-8-8-8-8-8-8-8-8-8-8-8-8-6-6-6-6-6-6-6-6-6-6-6-6-6-6-6-6-5-5-5-5-5-5-5-5-11-11-11-11------------|
B |-9-9-9-9-9-9-9-9-9-9-9-9-9-9-9-9-7-7-7-7-7-7-7-7-7-7-7-7-7-7-7-7-5-5-5-5-5-5-5-5-12-12-12-12---------11-|
F#|-9-9-9-9-9-9-9-9-9-9-9-9-9-9-9-9-7-7-7-7-7-7-7-7-7-7-7-7-7-7-7-7-3-3-3-3-3-3-3-3-12-12-12-12-1111111111-|
C#|-7-7-7-7-7-7-7-7-7-7-7-7-7-7-7-7-5-5-5-5-5-5-5-5-5-5-5-5-5-5-5-5-----------------10-10-10-10-9-9-9-9-9--|
                                                                                                * * * *
c#|-------------------------------------5-5-----5-5-----5-5-----5-5-3-3-3-3-3-3-3-3-------------------------|
G#|-7-7-7-7-7-7-7-7-7-7-7-7-7-7-7-7-----5-5-----5-5-----5-5-----5-5-4-4-4-4-4-4-4-4-------------------------|
E |-8-8-8-8-8-8-8-8-8-8-8-8-8-8-8-8-6-6-6-6-6-6-6-6-6-6-6-6-6-6-6-6-5-5-5-5-5-5-5-5-11-11-11-11-------------|
B |-9-9-9-9-9-9-9-9-9-9-9-9-9-9-9-9-7-7-7-7-7-7-7-7-7-7-7-7-7-7-7-7-5-5-5-5-5-5-5-5-12-12-12-12-11-11-11-11-|
F#|-9-9-9-9-9-9-9-9-9-9-9-9-9-9-9-9-7-7-7-7-7-7-7-7-7-7-7-7-7-7-7-7-3-3-3-3-3-3-3-3-12-12-12-12-11-11-11-11-|
C#|-7-7-7-7-7-7-7-7-7-7-7-7-7-7-7-7-5-5-5-5-5-5-5-5-5-5-5-5-5-5-5-5-----------------10-10-10-10-9--9--9--9--|
                                                                                                
1:22
c#|--------------------------------------------------------------------------------------------------------|
G#|----11--11-----11--11--11--------11--11-----11--11--11--------11--11-----11--11--11---------------------|
E |----11--11-----11--11--11--------11--11-----11--11--11--------11--11-----11--11--11---------------1-----|
B |----9---9------9---9---9---------9---9------9---9---9---------9---9------9---9---9------------------3---|
F#|-00-10--10--00-10--10--10-----00-10--10--00-10--10--10-----00-10--10--00-10--10--10-----2-2---2-4-----4-|
C#|-00---------00-------------0--00---------00-------------0--00---------00-------------0------2-----------|
    **         **                **         **                **         **      

c#|--------------------------------------------------------------------------------------------------------|
G#|----11--11-----11--11--11--------11--11-----11--11--11--------11--11-----11--11--11---------------------|
E |----11--11-----11--11--11--------11--11-----11--11--11--------11--11-----11--11--11---------------1-----|
B |----9---9------9---9---9---------9---9------9---9---9---------9---9------9---9---9------------------3---|
F#|-00-10--10--00-10--10--10-----00-10--10--00-10--10--10-----00-10--10--00-10--10--10-----2-2---2-4-----4-|
C#|-00---------00-------------0--00---------00-------------0--00---------00-------------0------2-----------|
    **         **                **         **                **         **

1:33
c#|-----7-7-----7-7-----7-7-----7-7-----7-7-----7-7-----7-7-----7-7-----7-7-----7-7-----7-7-----7-7-|
G#|-8-8-8-8-8-8-8-8-----7-7-----7-7-----7-7-----7-7-----7-7-----7-7-----7-7-----7-7-----7-7-----7-7-|
E |-9-9-9-9-9-9-9-9-8-8-8-8-8-8-8-8-8-8-8-8-8-8-8-8-8-8-8-8-8-8-8-8-8-8-8-8-8-8-8-8-8-8-8-8-8-8-8-8-|
B |-9-9-9-9-9-9-9-9-9-9-9-9-9-9-9-9-9-9-9-9-9-9-9-9-9-9-9-9-9-9-9-9-9-9-9-9-9-9-9-9-9-9-9-9-9-9-9-9-|
F#|-7-7-7-7-7-7-7-7-9-9-9-9-9-9-9-9-9-9-9-9-9-9-9-9-9-9-9-9-9-9-9-9-9-9-9-9-9-9-9-9-9-9-9-9-9-9-9-9-|
C#|-----------------7-7-7-7-7-7-7-7-7-7-7-7-7-7-7-7-7-7-7-7-7-7-7-7-7-7-7-7-7-7-7-7-7-7-7-7-7-7-7-7-|

c#|-------------------------------------------------|
G#|-11-11-11-11-11-11-11-11-11-11-11-11-11-11-11-11-| 
E |-12-12-12-12-12-12-12-12-12-12-12-12-12-12-12-12-|  
B |-12-12-12-12-12-12-12-12-12-12-12-12-12-12-12-12-|   
F#|-10-10-10-10-10-10-10-10-10-10-10-10-10-10-10-10-| 
C#|-------------------------------------------------| x2

1:57

************************************

| /   slide up
| \   slide down
| h   hammer-on
| p   pull-off
| ~   vibrato
| +   harmonic
| x   Mute note
| b   Bend
| pb  Pre-bend
| br  Bend release
| pbr Pre-bend release
| brb Bend release bend
| *   Palm mute

************************************
Добавлено: 19.04.2017
Другие материалы по этой песне:
  • Аккорды и текст

Страница создана 21.12.2013
http://primanota.ru/architects/feather-of-lead-chords.htm
Привет, Гость.
Предлагаем пройти революционный курс по гитаре.
Подарок от PrimaNota.Ru, забирай!