PrimaNota.ru - самый крупный в мире бесплатный архив песенных текстов, аккордов, табулатур и нот


Archie Bell - Tighten Up - таба, бас-таба, видео

Регистрация Запомнить меня
Войти через:  Facebook Google Twitter Vk Yandex Mail.ru

Archie Bell - Tighten Up - таба, бас-таба, видео

Печатать
Просмотров: 185
Авторы музыки: Billy Butler, Archie Bell

Hi - There was a request for "Tighten Up" by Archie Bell & The Drells and
	I knew it so... Obviously it's pretty simple.

						- Charlie

Bass Line:   ( / means to slide up on the frets )

E --------------------------|--------------------------|--|
B --------------------------|--------------------------|--|
G --------------------------|--------------------------|--|
D --------------------------|-------------------4------|--|
A -------------4--6--4--6---|--4--4--4/6--4--6-----6---|--|
E --2--2--4/6---------------|--------------------------|--|

    1  2    3        4         1  2    3        4


Guitar Chords: (And Brass "mellow" Line):
                                                      F#maj7
  F#maj7  Bmaj7     F#maj7         A                  (in repeating guitar part)
E --1---|---6---|   -9----6------- --5---4----------- --------|
B --2---|---7---|   -----------7-- ----------7---4--- --------|
G --3---|---8---|   -------------- ------------------ -6------|
D --4---|---9---|   -------------- ------------------ --------|
A X-----|-X-----|   -------------- ------------------ --------|
E X-----|-X-----|   -------------- ------------------ --------|

|:   repeat    :|
                      F#maj7       A
                    E --1---       ---5---|
                    B --2---       ---5---|
                    G --3---       ---6---|
                    D --4---       ---7---|
                    A X-----       -X-----|
                    E X-----       -X-----|
Добавлено: 08.05.2012
Другие материалы по этой песне:
  • Аккорды и текст

Страница создана 08.05.2012
http://primanota.ru/archie-bell/tighten-up-chords.htm
Привет, Гость.
Предлагаем пройти революционный курс по гитаре.
Подарок от PrimaNota.Ru, забирай!