PrimaNota.ru - самый крупный в мире бесплатный архив песенных текстов, аккордов, табулатур и нот


Archeon - Prayer - текст песни, таба, видео

Регистрация Запомнить меня
Войти через:  Facebook Google Twitter Vk Yandex Mail.ru

Archeon - Prayer - текст песни, таба, видео

Печатать
Просмотров: 202
---------------------------------------------------------------------------
                             N.I.B - Black Sabbath
----------------------------------------------------------------------------
Tabbed by: johnnythrasher5
Email: metalhead999@insightbb.com

Tuning:standard


riff/verse x3
e|-------------------------------------------------------------------------|
B|-------------------------10b-8b------------------------------------------|
G|-------------------------------------------------------------------------|
D|-9-9-7-9--12\11--9-9-7-9--------9-9-7-9--12\11--9-9-7-9---5h7p5-7h8h9----|
A|-7-7-5-7--10\9---7-7-5-7--------7-7-5-7--10\9---7-7-5-7--7---------------|
E|-0-0---0---------0-0---0--------0-0---0---------0-0---0------------------|

riff 2
e|-------------------------------------------------------------------------|
B|-------------------------------------------------10b--10b--10b-----------|
G|-------------------------------------------------------------------------|
D|-----5-7-5h7p5--------5-7-5h7p5--------5-7-5h7p5-------------------------|
A|-5h7-----------7--5h7-----------7--5h7----------7------------------------|
E|-------------------------------------------------------------------------|

then its the verse again.
then its the 2nd riff again.

riff 3
e|-------------------------------------------|
B|-------------------------------------------|
G|-------------------------------------------|
D|-------------------------------------------|
A|--9-----7----5----4----5----4---5----4-----|
E|--7-----5----3----2----3----2---3----2-----|

guitar solo
e|-----------------------------------------------------------------------|
B|--------------------------------------------------------8h10p8---8-10--|
G|----------------------------4/77-7h99-9b-9b-7h9p7h9-9999-------9-------|
D|--5-4h5p4---5-4h5p4---4-5-7--------------------------------------------|
A|----------7---------7--------------------------------------------------|
E|-----------------------------------------------------------------------|

e|-------------------------------------------------------------------------|
B|-10-10p8--10p8--10-10p8-----10b-10b-8h10p8/12----------------------------|
G|--------9-----9---------9-9----------------------------------------------|
D|----------------------------------------------5-4h5p4---5-4h5p4---4-5-7--|
A|------------------------------------------------------7---------7--------|
E|-------------------------------------------------------------------------|

E-------------------------------12------15p12---15p12----15p12---15p12------|
B----------------------------12----15p12-----12-------12-------12-----12b---|
G-4/77-7h99-9/12-12-12/15-15------------------------------------------------|
D---------------------------------------------------------------------------|
A---------------------------------------------------------------------------|
E---------------------------------------------------------------------------|

E-15-12h15p12----12------------12------12----------------------|
B-------------15----15p12----12--12-15---15-12--12-15----------|
G-------------------------14------------------15------14-14----|
D--------------------------------------------------------------|
A--------------------------------------------------------------|
E--------------------------------------------------------------|

then play the verse again
then riff 3 again
then the verse once more
and then riff 2 again

thats it thank you.

************************************

| /   slide up
| \   slide down
| h   hammer-on
| p   pull-off
| ~   vibrato
| +   harmonic
| x   Mute note
| b   Bend
| pb  Pre-bend
| br  Bend release
| pbr Pre-bend release
| brb Bend release bend

************************************
---
Добавлено: 15.06.2012
Другие материалы по этой песне:

Страница создана 19.04.2012
http://primanota.ru/archeon/prayer-chords.htm
Привет, Гость.
Предлагаем пройти революционный курс по гитаре.
Подарок от PrimaNota.Ru, забирай!