PrimaNota.ru - самый крупный в мире бесплатный архив песенных текстов, аккордов, табулатур и нот


Archangel Reverb - Fairytale Of New York By The Pogues - таба

Регистрация Запомнить меня
Войти через:  Facebook Google Twitter Vk Yandex Mail.ru

Archangel Reverb - Fairytale Of New York By The Pogues - таба

Печатать
Просмотров: 106
-------------------------------------------------------------------------------
                  Fairytale Of New York - Archangel Reverb
                    Original score & song by The Pogues
                   All rights to there respective owners
-------------------------------------------------------------------------------
Tabbed by:  Thomas Robert Mcalister (Archangel)
E-mail:  Alpha-2-omega@sky.com

Tuning: Drop D/Standard

e|---------------------------------------------------------------------------|
B|--0-2-3--------------------------------------------------------------------|
G|-2-0----2-0----------------------------------------------------------------|
D|---------0--4-2-2----------------------------------------------------------|
A|---------------------------------------------------------------------------|
D|---------------------------------------------------------------------------|

e|---------------------------------------------------------------------------|
B|---------------------------------------------------------------------------|
G|---------------------------------------------------------------------------|
D|---2---2-0-0-12-12-11-11-9-9--9-11-12-7-4-4--0-5-4-4-2-0-------------------|
A|-0---4---------------------------------------------------------------------|
D|---------------------------------------------------------------------------|

e|---------------------------------------------------------------------------|
B|---------------------------------------------------------------------------|
G|---2---2-0-0-12-12-11-11-9-9--9-11-12-7-4-4--0-5-4-4-2-2-------------------|
D|-0---4---------------------------------------------------------------------|
A|---------------------------------------------------------------------------|
D|---------------------------------------------------------------------------|

e|---------------------------------------------------------------------------|
B|---------------------------------------------------------------------------|
G|---------------------------------------------------------------------------|
D|---2---2-0-0-12-12-11-11-9-9--9-11-12-7-4-4--0-5-4-4-2-0-------------------|
A|-0---4---------------------------------------------------------------------|
D|---------------------------------------------------------------------------|

e|---------------------------------------------------------------------------|
B|---------------------------------------------------------------------------|
G|---2---2-0-0-12-12-11-11-9-9--9-11-12-7-4-4--0-5-4-4-2-2-------------------|
D|-0---4---------------------------------------------------------------------|
A|---------------------------------------------------------------------------|
D|---------------------------------------------------------------------------|

 Bridge 

e|---------------------------------------------------------------------------|
B|---0-----------0-----------------------------------------------------------|
G|-2---2-------2---2---------------------------------------------------------|
D|-------4-0---------2-0-2-4-2-0-------------0-------------------------------|
A|-------------------------------2-0-2-0-2-4---------------------------------|
D|---------------------------------------------------------------------------|
     
 Verse

e|---0-2-0---0-2-0---------5-7-5-2---0-2-3-5-0-----5-7-5-2-----0-2-0---------|
B|-3-------3-------3-0-------------3-----------------------3-3-------3-0-----|
G|---------------------------------------------------------------------------|
D|---------------------------------------------------------------------------|
A|---------------------------------------------------------------------------|
D|---------------------------------------------------------------------------|

e|-----2-5-2---0-2-0---------------------------------------------------------|
B|---3-------3-------3-------------------------------------------------------|
G|-2-------------------------------------------------------------------------|
D|---------------------------------------------------------------------------|
A|---------------------------------------------------------------------------|
D|---------------------------------------------------------------------------|

e|-5-7-5-2-----5-7-5-0-----0-2-0---------------------------------------------|
B|----------------------3--------3-0---------2-3-----------------------------|
G|-----------------------------------2-4-2-4---------------------------------|
D|---------------------------------------------------------------------------|
A|---------------------------------------------------------------------------|
D|---------------------------------------------------------------------------|

e|-5-7-5-2-----5-7-5-0-----0-2-0---------------------------------------------|
B|----------------------3--------3-0---------2-3-----------------------------|
G|-----------------------------------2-4-2-4---------------------------------|
D|---------------------------------------------------------------------------|
A|---------------------------------------------------------------------------|
D|---------------------------------------------------------------------------|

 Chorus

e|-5-7-7-7-7-9-10-10-9-7-5---------------------------------------------------|
B|--------------------------10-9-7---3-8-5-7---------------------------------|
G|---------------------------------------------------------------------------|
D|---------------------------------------------------------------------------|
A|---------------------------------------------------------------------------|
D|---------------------------------------------------------------------------|

REPEAT VERSE AND CHORUS
  
Outro

e|---------------------------------------------------------------------------|
B|-3-3-2-2-0-0-----0-2-3-----------------------------------------------------|
G|-----------------------2--------0------------------------------------------|
D|-------------------------4-4--0---4-2-0------------------------------------|
A|----------------------------------------4----------------------------------|
D|---------------------------------------------------------------------------|
   
(starting on "You Took My Dreams From Me...)
e|---------------------------------------------------------------------------|
B|---------------------------------------------------------------------------|
G|---------------------------------------------------------------------------|
D|-9-11-12-7-4-4--0-5-4-4-2-2-------0---2-0-0-----12-12-11-11-9-9---9-11-----|
A|---------------------------------0---4-------------------------------------|
D|---------------------------------------------------------------------------|

e|---0---2-0-0-----12-12-11-11-9-9---9-11-12-7-4-4--0-4-0-5-4-2-0------------|
B|-0---4---------------------------------------------------------------------|
G|---------------------------------------------------------------------------|
D|---------------------------------------------------------------------------|
A|---------------------------------------------------------------------------|
D|---------------------------------------------------------------------------|

  Chorus

e|-5-7-7-7-7-9-10-10-9-7-5----------/15--------------------------------------|
B|-------------------------10-9-7--------------------------------------------|
G|---------------------------------------------------------------------------|
D|---------------------------------------------------------------------------|
A|---------------------------------------------------------------------------|
D|---------------------------------------------------------------------------|
  Outro Instrumental
e|---------------------------------------------------------------------------|
B|-2-5-3-3--3-3-2-2-0-0---0-2-3----------------------------------------------|
G|------------------------------2---------0----------------------------------|
D|--------------------------------4-4---0---4-4-2-2--------------------------|
A|---------------------------------------------------------------------------|
D|---------------------------------------------------------------------------|

e|---------------------------------------------------------------------------|
B|-2-3-2-5-3-3---3-3-2-2-0-0---0-2-3-----------------------------------------|
G|-----------------------------------2---------0-----------------------------|
D|-------------------------------------4-4---0---4-2-0-----------------------|
A|-----------------------------------------------------4---------------------|
D|---------------------------------------------------------------------------|

    

************************************

| /   slide up
| \   slide down
| h   hammer-on
| p   pull-off
| ~   vibrato
| +   harmonic
| x   Mute note
| b   Bend
| pb  Pre-bend
| br  Bend release
| pbr Pre-bend release
| brb Bend release bend

************************************
Добавлено: 29.06.2015
Другие материалы по этой песне:
  • Аккорды и текст

Страница создана 29.06.2015
http://primanota.ru/archangel-reverb/fairytale-of-new-york-by-pogues-chords.htm
Привет, Гость.
Предлагаем пройти революционный курс по гитаре.
Подарок от PrimaNota.Ru, забирай!