PrimaNota.ru - самый крупный в мире бесплатный архив песенных текстов, аккордов, табулатур и нот


Arch Enemy - Taking Back My Soul - текст песни, таба, видео

Регистрация Запомнить меня
Войти через:  Facebook Google Twitter Vk Yandex Mail.ru

Arch Enemy - Taking Back My Soul - текст песни, таба, видео

Печатать
Просмотров: 197
Авторы музыки: Daniel Erlandsson, Michael Amott, Christopher Amott
Авторы текста: Michael Amott, Angela Gossow
TAKING BACK MY SOUL
As recorded by Arch Enemy
(From the 2005 Album DOOMSDAY MACHINE)

Transcribed by SoggieMufin for Power Tabs.net


Exported from Power Tab by Robbie Fitzgerald
        

Words by Angela Gossow

 Intro
 
  Gtr I
|---------------------------------|--------|
|---------------------------------|--------|
|---------------------------------|--------|
|---------------------------------|--------|
|-------5-5-5-------5-5-5---------|--------|
|-2-1-0-------6-5-4-------2-1-0-0-|-1------|
|
| Gtr II
|---------------------------------|--------|
|---------------------------------|--------|
|---------------------------------|--------|
|---------------------------------|--------|
|-------5-5-5-------5-5-5---------|--------|
|-2-1-0-------6-5-4-------2-1-0-0-|-1------|


|---------------------------------|
|---------------------------------|
|---------------------------------|
|---------------------------------|
|-------5-5-5-------5-5-5---------|
|-2-1-0-------6-5-4-------2-1-0-0-|
|
|---------------------------------|
|---------------------------------|
|---------------------------------|
|---------------------------------|
|-------5-5-5-------5-5-5---------|
|-2-1-0-------6-5-4-------2-1-0-0-|


|---------------------------------------------------------------|
|---------------------------------------------------------------|
|---------------------------------------------------------------|
|---------------------------------------------------------------|
|---------------------------------------------------------------|
|-1-<3>-<3>-<3>-<3>-<3>-<3>-<3>-<3>-<3>-<3>-<3>-<3>-<3>-<3>-<3>-|
|
|---------------------------------------------------------------|
|---------------------------------------------------------------|
|---------------------------------------------------------------|
|---------------------------------------------------------------|
|---------------------------------------------------------------|
|-1-------------------------------------------------------------|


|---------------------------------|
|---------------------------------|
|---------------------------------|
|---------------------------------|
|-------5-5-5-------5-5-5---------|
|-2-1-0-------6-5-4-------2-1-0-0-|
|
|---------------------------------|
|---------------------------------|
|---------------------------------|
|---------------------------------|
|-------5-5-5-------5-5-5---------|
|-2-1-0-------6-5-4-------2-1-0-0-|


|---------------------------------------------------------------|
|---------------------------------------------------------------|
|---------------------------------------------------------------|
|---------------------------------------------------------------|
|---------------------------------------------------------------|
|-1-------------------------------------------------------------|
|
|---------------------------------------------------------------|
|---------------------------------------------------------------|
|---------------------------------------------------------------|
|---------------------------------------------------------------|
|---------------------------------------------------------------|
|-1-[2]-[2]-[2]-[2]-[2]-[2]-[2]-[2]-[2]-[2]-[2]-[2]-[2]-[2]-[2]-|


    Gtr IV
    PM--------------------------------------------------------------|
||----------------------------------|-----------------------------------||
||o---------------------------------|----------------------------------o||
||--------7-7-7-------7-7-7---------|-------7-7-7-------7-7-7-----------||
||--------------8-7-6---------------|-------------8-7-6-----------------||
||o-9-8-7-------------------9-8-7-7-|-9-8-7-------------------9-8-7-7--o||
||----------------------------------|-----------------------------------||
|
|   Gtrs I, II
|   PM--------------------------------------------------------------|
||----------------------------------|-----------------------------------||
||o---------------------------------|----------------------------------o||
||----------------------------------|-----------------------------------||
||----------------------------------|-----------------------------------||
||o-------5-5-5-------5-5-5---------|-------5-5-5-------5-5-5----------o||
||--2-1-0-------6-5-4-------2-1-0-0-|-2-1-0-------6-5-4-------2-1-0-0---||


  Gtrs I, II
|---------------------|----------------------|--------|
|---------------------|----------------------|--------|
|---------------------|----------------------|--------|
|---------------------|-------------------3--|-(3)----|
|---------------------|-------------------1--|-(1)----|
|-3-2-0-2--3-2-0-2----|-3-2-0-2--3-2-0-2--1--|-(1)----|


|-----------------------------------------|-----------------------------|
|-----------------------------------------|-----------------------------|
|-------------------------<3>-<3>-<3>-<3>-|-----------------------------|
|-------------------------<3>-<3>-<3>-<3>-|-------------------------3---|
|-----------------------------------------|-------------------------1---|
|-3-2-0-2-(2)-3-2-0-2-(2)-----------------|-3-2-0-2-(2)-3-2-0-2-(2)-----|


|-----------------------------------------|-----------------------------|
|-----------------------------------------|-----------------------------|
|-------------------------<3>-<3>-<3>-<3>-|-----------------------------|
|-------------------------<3>-<3>-<3>-<3>-|-------------------------3---|
|-----------------------------------------|-------------------------1---|
|-3-2-0-2-(2)-3-2-0-2-(2)-----------------|-3-2-0-2-(2)-3-2-0-2-(2)-----|


 Solo I
  Gtr III
   ~~~~~~~~~~~~~~~~~~~~~~~~~~~~~~~~~
|---------------------------------------------------------|
|-17b19r======(17)-17b19---(17)pb19-----------------------|
|---------------------------------------------------------|
|---------------------------------------------------------|
|---------------------------------------------------------|
|---------------------------------------------------------|
|
| Gtrs I, II
|---------------------------------------------------------|
|---------------------------------------------------------|
|-----------------------------------------<3>-<3>-<3>-<3>-|
|-----------------------------------------<3>-<3>-<3>-<3>-|
|---------------------------------------------------------|
|--3----2-0-2--(2)--3----2---0------2-(2)-----------------|


                                       ~~~~~~~~
|-14h15p==14----14------------------------------|
|------------17----17--15-14-17-15-14-----------|
|-------------------------------------15--(15)--|
|-----------------------------------------------|
|-----------------------------------------------|
|-----------------------------------------------|
|
|-----------------------------------------------|
|-----------------------------------------------|
|-----------------------------------------------|
|-------------------------------------------3---|
|-------------------------------------------1---|
|--3----2-----0--2-(2)-----3--2--0--2-(2)-------|


|------------14-17---19-----------14-17---19------------14--17-19---------------14--17-----19-|
|-14-17---19------------14--17-19------------14-17---19-----------14--17-----19---------------|
|---------------------------------------------------------------------------------------------|
|---------------------------------------------------------------------------------------------|
|---------------------------------------------------------------------------------------------|
|---------------------------------------------------------------------------------------------|
|
|---------------------------------------------------------------------------------------------|
|---------------------------------------------------------------------------------------------|
|-----------------------------------------------------------------<3>----<3>----<3>----<3>----|
|-----------------------------------------------------------------<3>----<3>----<3>----<3>----|
|---------------------------------------------------------------------------------------------|
|--3----2-----0----2----(2)--------3----2-----0----2----(2)-----------------------------------|


                                                                   ~~~~~
|------------14-17---19-----------14-17---19-19-17---14-----------19b21----|
|-14-17---19------------14--17-19-----------------------19--17-14----------|
|--------------------------------------------------------------------------|
|--------------------------------------------------------------------------|
|--------------------------------------------------------------------------|
|--------------------------------------------------------------------------|
|
|--------------------------------------------------------------------------|
|--------------------------------------------------------------------------|
|--------------------------------------------------------------------------|
|------------------------------------------------------------------3-------|
|------------------------------------------------------------------1-------|
|--3----2-----0----2----(2)--------3----2-----0----2----(2)----------------|


 Verse
                     >
   ~~~~~~~~~~~~~~~~~~~~~~~~~
|-19b21------------(19)pb21------|----------------------|
|--------------------------------|----------------------|
|--------------------------------|----------------------|
|--------------------------------|----------------------|
|--------------------------------|----------------------|
|--------------------------------|----------------------|
|
|--------------------------------|----------------------|
|--------------------------------|----------------------|
|--------------------------------|----------------------|
|--------------------------------|-------------------3--|
|--------------------------------|-------------------1--|
|--3----2-0-2--3-2---0------2----|-3-2-0-2--3-2-0-2-----|


  $
  Gtrs I, II
|---------------------|-----------------------|
|---------------------|-----------------------|
|---------------------|-------------------3s6-|
|---------------------|-----------------------|
|---------------------|-------------------1s4-|
|-3-2-0-2--3-2-0-2----|-3-2-0-2--3-2-0-2------|


                                          PM|
|---------------------|-----------------------------|
|---------------------|-----------------------------|
|---------------------|-----------------------------|
|---------------------|-----------------------4h5p4-|
|---------------------|-------------------4-7-------|
|-3-2-0-2--3-2-0-2----|-3-2-0-2--3-2-0-2------------|


|---------------------|---------------------|
|---------------------|---------------------|
|---------------------|---------------------|
|---------------------|---------------------|
|---------------------|---------------------|
|-3-2-0-2--3-2-0-2----|-3-2-0-2--3-2-0-2----|


  PM--------------------------------------------------------------|
|---------------------------------|---------------------------------|
|---------------------------------|---------------------------------|
|-------------------------2-2-2-2-|---------2-2-2-2-4-4-4-4-5-5-5-5-|
|---------3-3-3-3-5-5-5-5---------|---------------------------------|
|---------------------------------|-0-0-0-0-------------------------|
|-1-1-1-1-------------------------|---------------------------------|


              Chorus
  Gtr IV
|-----------||---------------------------------------|
|-----------||---------13---12---(12)-------13-------|
|-----------||-----------------------------------9---|
|-----------||---------------------------------------|
|-----------||---------------------------------------|
|-----------||---------------------------------------|
|
| Gtr III      Gtr III
|-----------||---------------------------------------|
|-----------||---------------------------------------|
|-----------||---------------------------------------|
|-----------||---------10----9----(9)-------10-------|
|-----------||-----------------------------------7---|
|-----------||---------------------------------------|
|
| Gtrs I, II
|-----------||---------------------------------------|
|-----------||---------------------------------------|
|-----------||---------------------------------------|
|-3---------||-7-7-7-7--7-7--7-7---7--7-7-7--7-7-7-7-|
|-1----3----||---------------------------------------|
|------1----||-5-5-5-5--5-5--5-5---5--5-5-5--5-5-5-5-|


|--------------------------------------------|
|-----------13---12---(12)-------13----------|
|-(9)---------------------------------10-----|
|--------------------------------------------|
|--------------------------------------------|
|--------------------------------------------|
|
|--------------------------------------------|
|--------------------------------------------|
|--------------------------------------------|
|-----------10----9----(9)-------10----------|
|-(7)----------------------------------8-----|
|--------------------------------------------|
|
|--------------------------------------------|
|--------------------------------------------|
|--------------------------------------------|
|--7--7-7-7--7-7--7-7---7--7-7-7--7-7--7-7---|
|--------------------------------------------|
|--5--5-5-5--5-5--5-5---5--5-5-5--5-5--5-5---|


|------------------------------------------|
|------------13---12---(12)-------10---9---|
|-(10)-------------------------------------|
|------------------------------------------|
|------------------------------------------|
|------------------------------------------|
|
|------------------------------------------|
|------------------------------------------|
|------------------------------------------|
|------------10----9----(9)--------7---6---|
|--(8)-------------------------------------|
|------------------------------------------|
|
|------------------------------------------|
|------------------------------------------|
|---7--7-7-7--7-7--7-7---7--7-7-7--7-7-7-7-|
|------------------------------------------|
|---5--5-5-5--5-5--5-5---5--5-5-5--5-5-5-5-|
|------------------------------------------|


|-----------------------------------------|
|-(9)-------10---12---(12)-------9---10---|
|-----------------------------------------|
|-----------------------------------------|
|-----------------------------------------|
|-----------------------------------------|
|
|-----------------------------------------|
|-----------------------------------------|
|-----------------------------------------|
|-(6)--------7----9----(9)-------6----7---|
|-----------------------------------------|
|-----------------------------------------|
|
|-----------------------------------------|
|-----------------------------------------|
|--9--9-9-9--9-9--9-9---9--9-9-9-9-9--9-9-|
|-----------------------------------------|
|--7--7-7-7--7-7--7-7---7--7-7-7-7-7--7-7-|
|-----------------------------------------|


|----------------12------------10------------12--------|
|-(10)----------(13)----------(12)----------(13)-------|
|------------------------------------------------------|
|------------------------------------------------------|
|------------------------------------------------------|
|------------------------------------------------------|
|
|------------------------------------------------------|
|------------------------------------------------------|
|------------------------------------------------------|
|---7------------10-------------9------------10--------|
|------------------------------------------------------|
|------------------------------------------------------|
|
|------------------------------------------------------|
|------------------------------------------------------|
|--10--10-10-10--10--10-10-10--10--10-10-10---9--9-9-9-|
|------------------------------------------------------|
|---8---8--8--8---8---8--8--8---8---8--8--8---7--7-7-7-|
|------------------------------------------------------|


|------------------------------------|
|--13--------------------------------|
|-(10)-------------------------------|
|------------------------------------|
|------------------------------------|
|------------------------------------|
|
|------------------------------------|
|------------------------------------|
|------------------------------------|
|------------------------------------|
|---8--------------------------------|
|------------------------------------|
|
|------------------------------------|
|------------------------------------|
|---7--7-7-7-7-7-7-7-7-7-7-7-7-7-7-7-|
|------------------------------------|
|---5--5-5-5-5-5-5-5-5-5-5-5-5-5-5-5-|
|------------------------------------|


|-------------------------------------------------|
|-10-10-10-10-10-10-10-10-10-10-10-10-10-10-10-10-|
|-------------------------------------------------|
|--7--7--7--7--7--7--7--7--7--7--7--7--7--7--7--7-|
|-------------------------------------------------|
|-------------------------------------------------|
|
|-------------------------------------------------|
|-------------------------------------------------|
|-------------------------------------------------|
|--7-----------------9----------------10----------|
|-------------------------------------------------|
|-------------------------------------------------|
|
|-------------------------------------------------|
|-------------------------------------------------|
|--9--9--9--9--9--9--9--9--9--9--9--9--9--9--9--9-|
|-------------------------------------------------|
|--7--7--7--7--7--7--7--7--7--7--7--7--7--7--7--7-|
|-------------------------------------------------|


                             To Coda
|-------------------------------------|
|----9--------------------------------|
|-------------------------------------|
|----6--------------------------------|
|-------------------------------------|
|-------------------------------------|
|
|-/(12)-------------------------------|
|-------------------------------------|
|---/9--------------------------------|
|-------------------------------------|
|-------------------------------------|
|-------------------------------------|
|
|-------------------------------------|
|-------------------------------------|
|----9--9-9-9-9-9-9-9-9-9-9-9-9-9-9-9-|
|-------------------------------------|
|----7--7-7-7-7-7-7-7-7-7-7-7-7-7-7-7-|
|-------------------------------------|


  Gtr III
|---------------------|-------------------9/--|
|---------------------|-----------------------|
|---------------------|-----------------------|
|---------------------|-----------------------|
|---------------------|-----------------------|
|---------------------|-----------------------|
|
| Gtrs I, II
|---------------------|-----------------------|
|---------------------|-----------------------|
|---------------------|-----------------------|
|---------------------|-------------------3---|
|---------------------|-------------------1---|
|-3-2-0-2--3-2-0-2----|-3-2-0-2--3-2-0-2------|


 2nd Lead - Gus. G
    TP
|-/21---------------------------------------|
|-------------------------------------------|
|-------------------------------------------|
|-------------------------------------------|
|-------------------------------------------|
|-------------------------------------------|
|
|-------------------------------------------|
|-------------------------------------------|
|---------------------------<3>-<3>-<3>-<3>-|
|---------------------------<3>-<3>-<3>-<3>-|
|-------------------------------------------|
|---3-2-0-2-(2)-3-2-0-2-(2)-----------------|


|-21p18--------------18-21p=18------------18-21-20---19-----18-19-21p18----------18--|
|---------20----20-------------20----20---------------------------------20----20-----|
|------------18-------------------18---------------------------------------18--------|
|------------------------------------------------------------------------------------|
|------------------------------------------------------------------------------------|
|------------------------------------------------------------------------------------|
|
|------------------------------------------------------------------------------------|
|------------------------------------------------------------------------------------|
|------------------------------------------------------------------------------------|
|------------------------------------------------------------------3-----------------|
|------------------------------------------------------------------1-----------------|
|--3----2-----0----2----(2)--------3----2-----0----2----(2)--------------------------|


|-18p15--------------15-18p=15------------15-18-17---16-15--16-17-18p=15-------------------15-|
|---------17----17-------------17----17--------------------------------------17-----17--------|
|------------15-------------------15--------------------------------------------15------------|
|---------------------------------------------------------------------------------------------|
|---------------------------------------------------------------------------------------------|
|---------------------------------------------------------------------------------------------|
|
|---------------------------------------------------------------------------------------------|
|---------------------------------------------------------------------------------------------|
|-----------------------------------------------------------------<3>----<3>----<3>----<3>----|
|-----------------------------------------------------------------<3>----<3>----<3>----<3>----|
|---------------------------------------------------------------------------------------------|
|--3----2-----0----2----(2)--------3----2-----0----2----(2)-----------------------------------|


|-15p12--------------12-15p=12------------12-15-14---13-12--13-14-15p12----------12-|
|---------14----14-------------14----14---------------------------------14----14----|
|------------12-------------------12---------------------------------------12-------|
|-----------------------------------------------------------------------------------|
|-----------------------------------------------------------------------------------|
|-----------------------------------------------------------------------------------|
|
|-----------------------------------------------------------------------------------|
|-----------------------------------------------------------------------------------|
|-----------------------------------------------------------------------------------|
|------------------------------------------------------------------3----------------|
|------------------------------------------------------------------1----------------|
|--3----2-----0----2----(2)--------3----2-----0----2----(2)-------------------------|


   ~~~~~
|-----------------------------14--15-----14-----13-----14-|
|-17b19---------------------------------------------------|
|---------------------------------------------------------|
|---------------------------------------------------------|
|---------------------------------------------------------|
|---------------------------------------------------------|
|
|---------------------------------------------------------|
|---------------------------------------------------------|
|-----------------------------<3>----<3>----<3>----<3>----|
|-----------------------------<3>----<3>----<3>----<3>----|
|---------------------------------------------------------|
|--3----2-0-2-(2)-3-2-0-2-(2)-----------------------------|


                                                   ~~~~
|----------------------------------------------------------|
|-17-15---14---17---15-14--15-14---------------------------|
|----------------------------------16---15-16-15-(15)---3s=|
|----------------------------------------------------------|
|----------------------------------------------------------|
|----------------------------------------------------------|
|
|----------------------------------------------------------|
|----------------------------------------------------------|
|----------------------------------------------------------|
|-----------------------------------------------------3----|
|-----------------------------------------------------1----|
|--3----2----0----2----(2)-------3----2-----0--2--(2)------|


|------------12s=14s12---------------------------------|
|------11-14-----------14-13-14-13---------------------|
|-9-11------------------------------14-11--14--11------|
|--------------------------------------------------14--|
|------------------------------------------------------|
|------------------------------------------------------|
|
|------------------------------------------------------|
|------------------------------------------------------|
|--------------------------------------<3>-<3>-<3>-<3>-|
|--------------------------------------<3>-<3>-<3>-<3>-|
|------------------------------------------------------|
|-3--2--0--2-(2)-----3--2--0--2-(2)--------------------|


                                            ~~~
|----------------------------------------------|
|----------------------------------------------|
|----------15--------16---------18-----18-/21--|
|----------------------------------------------|
|-16-14-13----13--13----13-16------16----------|
|----------------------------------------------|
|
|----------------------------------------------|
|----------------------------------------------|
|----------------------------------------------|
|-------------------------------------------3--|
|-------------------------------------------1--|
|--3--2--0--2-(2)-----3--2--0-2----(2)---------|


 2nd Verse
                                   D.S. al Coda
    ~~~~
|------------------------|----------------------|
|------------------------|----------------------|
|-(21)-------------------|----------------------|
|------------------------|----------------------|
|------------------------|----------------------|
|------------------------|----------------------|
|
| Gtrs I, II
|------------------------|----------------------|
|------------------------|----------------------|
|------------------------|----------------------|
|------------------------|-------------------3--|
|------------------------|-------------------1--|
|---3--2-0-2--3-2-0-2----|-3-2-0-2--3-2-0-2-----|


 Chorus Variation
  &
  Gtr IV
|------------------------------------------|
|-------------13-12-----12--------13-------|
|----------------------------------------9-|
|------------------------------------------|
|------------------------------------------|
|------------------------------------------|
|
| Gtr III
|------------------------------------------|
|------------------------------------------|
|------------------------------------------|
|-------------10--9-----(9)-------10-------|
|----------------------------------------7-|
|------------------------------------------|
|
| Gtrs I, II
|------------------------------------------|
|------------------------------------------|
|------------------------------------------|
|------------------------------------------|
|------------------------------------------|
|-5-5-5-5-5-5--5--5-5-5--5--5-5-5--5-5-5-5-|


|----------------------------------------------|
|---------------13-12-----(12)-------13--------|
|-(9)---------------------------------------10-|
|----------------------------------------------|
|----------------------------------------------|
|----------------------------------------------|
|
|----------------------------------------------|
|----------------------------------------------|
|----------------------------------------------|
|---------------10--9------(9)-------10--------|
|-(7)----------------------------------------8-|
|----------------------------------------------|
|
|----------------------------------------------|
|----------------------------------------------|
|----------------------------------------------|
|----------------------------------------------|
|----------------------------------------------|
|--5--5-5-5-5-5--5--5-5-5---5--5-5-5--5-5-5--5-|


|----------------------------------------------|
|----------------13-12-----(12)-------10-----9-|
|-(10)-----------------------------------------|
|----------------------------------------------|
|----------------------------------------------|
|----------------------------------------------|
|
|----------------------------------------------|
|----------------------------------------------|
|----------------------------------------------|
|----------------10--9------(9)--------7-----6-|
|--(8)-----------------------------------------|
|----------------------------------------------|
|
|----------------------------------------------|
|----------------------------------------------|
|----------------------------------------------|
|----------------------------------------------|
|---5--5-5-5-5-5--5--5-5-5---5--5-5-5--5-5-5-5-|
|----------------------------------------------|


|---------------------------------------------|
|-(9)-----------10-12-----(12)-------9-----10-|
|---------------------------------------------|
|---------------------------------------------|
|---------------------------------------------|
|---------------------------------------------|
|
|---------------------------------------------|
|---------------------------------------------|
|---------------------------------------------|
|-(6)------------7--9------(9)-------6------7-|
|---------------------------------------------|
|---------------------------------------------|
|
|---------------------------------------------|
|---------------------------------------------|
|---------------------------------------------|
|---------------------------------------------|
|--7--7-7-7-7-7--7--7-7-7---7--7-7-7-7-7-7--7-|
|---------------------------------------------|


|-----------------12---------10---------12--------|
|-(10)-----------(13)-------(12)-------(13)-------|
|-------------------------------------------------|
|-------------------------------------------------|
|-------------------------------------------------|
|-------------------------------------------------|
|
|-------------------------------------------------|
|-------------------------------------------------|
|-------------------------------------------------|
|--(7)------------10----------9---------10--------|
|-------------------------------------------------|
|-------------------------------------------------|
|
|-------------------------------------------------|
|-------------------------------------------------|
|-------------------------------------------------|
|-------------------------------------------------|
|---8--8-8-8-8-8---8--8-8-8---8--8-8-8---7--7-7-7-|
|-------------------------------------------------|


|----------------------------------------|
|--13------------------------------------|
|-(10)-----------------------------------|
|----------------------------------------|
|----------------------------------------|
|----------------------------------------|
|
|----------------------------------------|
|----------------------------------------|
|----------------------------------------|
|----------------------------------------|
|---8------------------------------------|
|----------------------------------------|
|
|----------------------------------------|
|----------------------------------------|
|----------------------------------------|
|----------------------------------------|
|---5--5-5-5-5-5-5-5-5-5-5-5-5-5-5-5-5-5-|
|----------------------------------------|


|-------------------------------------|----------|
|-10-10-10-10-10-10-10-10-10-10----10-|----9-----|
|-------------------------------------|----------|
|--7--7--7--7--7--7--7--7--7--7-----7-|----6-----|
|-------------------------------------|----------|
|-------------------------------------|----------|
|
|-------------------------------------|-/(12)----|
|-------------------------------------|----------|
|-------------------------------------|---/9-----|
|--7-----------------9----------10----|----------|
|-------------------------------------|----------|
|-------------------------------------|----------|
|
|-------------------------------------|----------|
|-------------------------------------|----------|
|-------------------------------------|----------|
|-------------------------------------|----9-----|
|--8-----8-----8-----8-----8--8-----8-|----7-----|
|-------------------------------------|----0-----|


               Q=180
                >
|------------|------------|-------------|
|-(9)--------|-(9)--------|-------------|
|------------|------------|-------------|
|-(6)--------|-(6)--------|-------------|
|------------|------------|-------------|
|------------|------------|-------------|
|
|               >
|------------|------------|-------------|
|------------|------------|-------------|
|-(9)--------|-(9)--------|-------------|
|------------|------------|-------------|
|------------|------------|-------------|
|------------|------------|-------------|
|
|------------|------------|-------------|
|------------|------------|-------------|
|------------|------------|-------------|
|-(9)--------|-(9)--------|-(9)-------2-|
|-(7)--------|-(7)--------|-(7)-------0-|
|-(0)--------|-(0)--------|-(0)---------|


    Gtrs I, II
           PM--|            PM--|            PM--|
||-----------------|----------------|----------------|-----------------------||
||o----------------|----------------|----------------|----------------------o||
||---------------5-|-(5)----------7-|-(7)----------9-|-(9)-9---8-(8)-8-------||
||--(2)----------3-|-(3)----------5-|-(5)----------7-|-(7)-7---6-(6)-6---2---||
||o-(0)----0-2-3---|--------0-2-3---|--------0-2-3---|-------0---------0-0--o||
||-----------------|----------------|----------------|-----------------------||


                  PM--|                   PM--|
||------------------------|-----------------------|
||o-----------------------|-----------------------|
||----------------------5-|-(5)-----------------7-|
||--(2)-----------------3-|-(3)-----------------5-|
||o-(0)-0-0-0-0-0-0-2-3---|-----0-0-0-0-0-0-2-3---|
||------------------------|-----------------------|


                PM--|
|-----------------------|------------------------||
|-----------------------|-----------------------o||
|-(7)-----------------9-|-(9)-9---8-(8)-8--------||
|-(5)-----------------7-|-(7)-7---6-(6)-6---2----||
|-----0-0-0-0-0-0-2-3---|-------0---------0-0---o||
|-----------------------|------------------------||


  Gtr I
         PM--|             PM--|             PM--|
|-----------------|-----------------|------------------|-----------------------|
|-----------------|-----------------|------------------|-----------------------|
|-----------------|-----------------|------------------|-----------------------|
|-(2)----------/3-|-(3)----------/5-|-(5)-----------/7-|--(7)--7---6-(6)-6---2-|
|-(0)----0-2-3----|--------0-2-3----|--------0-2-3-----|---------0---------0-0-|
|-----------------|-----------------|------------------|-----------------------|
|
| Gtr II
|        PM--|             PM--|             PM--|
|-----------------|-----------------|------------------|-----------------------|
|-----------------|-----------------|------------------|-----------------------|
|-----------------|-----------------|------------------|-----------------------|
|-(2)----------/7-|-(7)----------/9-|-(9)----------/10-|-(10)-10---9-(9)-9---2-|
|-(0)----0-2-3----|--------0-2-3----|--------0-2-3-----|---------0---------0-0-|
|-----------------|-----------------|------------------|-----------------------|


  Gtr III
|-----------------|-----------------|
|-----------------|-----------------|
|-----------------|-----------------|
|-----------------|-----------------|
|-----------------|-----------------|
|-----------------|-----------------|
|
| Gtr I
|        PM--|             PM--|
|-----------------|-----------------|
|-----------------|-----------------|
|-----------------|-----------------|
|-(2)----------/3-|-(3)----------/5-|
|-(0)----0-2-3----|--------0-2-3----|
|-----------------|-----------------|
|
| Gtr II
|        PM--|             PM--|
|-----------------|-----------------|
|-----------------|-----------------|
|-----------------|-----------------|
|-(2)----------/7-|-(7)----------/9-|
|-(0)----0-2-3----|--------0-2-3----|
|-----------------|-----------------|


|------------------|---------------------12----|
|------------------|---------------------15b17-|
|------------------|---------------------------|
|------------------|---------------------------|
|------------------|---------------------------|
|------------------|---------------------------|
|
|        PM--|
|------------------|---------------------------|
|------------------|---------------------------|
|------------------|---------------------------|
|-(5)-----------/7-|--(7)--7---6-(6)-6----2----|
|--------0-2-3-----|---------0---------0--0----|
|------------------|---------------------------|
|
|        PM--|
|------------------|---------------------------|
|------------------|---------------------------|
|------------------|---------------------------|
|-(9)----------/10-|-(10)-10---9-(9)-9----2----|
|--------0-2-3-----|---------0---------0--0----|
|------------------|---------------------------|


|-(12)---------------------15----|-(15)-----------13------(13)---------12----|
|-(15)pb17-----------------18b20-|-(18)pb20-------16b18---(16)pb18-----15b17-|
|--------------------------------|-------------------------------------------|
|--------------------------------|-------------------------------------------|
|--------------------------------|-------------------------------------------|
|--------------------------------|-------------------------------------------|
|
| Gtrs I, II
|                    PM--|                                  PM-------|
|--------------------------------|-------------------------------------------|
|--------------------------------|-------------------------------------------|
|---------------------------5----|--(5)---------------------------------7----|
|--(2)----------------------3----|--(3)---------------------------------5----|
|--(0)-----0-0-0-0-0-0-2-3-------|----------0-0-0--0----0---0------2-3-------|
|--------------------------------|-------------------------------------------|


|-(12)-----------10------(10)----------8----|--(8)---------------------|
|-(15)pb17-------13b15---(13)pb15-----11b13-|-(11)pb13-----------------|
|-------------------------------------------|--------------------------|
|-------------------------------------------|--------------------------|
|-------------------------------------------|--------------------------|
|-------------------------------------------|--------------------------|
|
|                          PM-------|
|-------------------------------------------|--------------------------|
|-------------------------------------------|--------------------------|
|--(7)---------------------------------9----|--(9)-----9---8-(8)-8-----|
|--(5)---------------------------------7----|--(7)-----7---6-(6)-6---2-|
|----------0-0-0--0----0---0------2-3-------|------------0---------0-0-|
|-------------------------------------------|--------------------------|


|--------------------------------------------------|
|------------12---13---15s==17------------13-15-17-|
|-10-12---14-------------------12---14-16----------|
|--------------------------------------------------|
|--------------------------------------------------|
|--------------------------------------------------|
|
|                            PM--------|
|--------------------------------------------------|
|--------------------------------------------------|
|---------------------------------------------5----|
|--2------------------------------------------3----|
|--0----0-----0-0----0----0--0----2-----3----------|
|--------------------------------------------------|


|-------------------------------------------------12-13---15-|
|-18---------------15---17---18---20-12---13-15--------------|
|-----14---16-17---------------------------------------------|
|------------------------------------------------------------|
|------------------------------------------------------------|
|------------------------------------------------------------|
|
|                                  PM-----------|
|------------------------------------------------------------|
|------------------------------------------------------------|
|-(5)---------------------------------------------------7----|
|-(3)---------------------------------------------------5----|
|--------0-------0----0----0----0--0----2-------3------------|
|------------------------------------------------------------|


|-17----------13-15---17---20---19-17----17---19-17------------------|
|----13-15-17-------------------------20------------21-20-19---18-19-|
|--------------------------------------------------------------------|
|--------------------------------------------------------------------|
|--------------------------------------------------------------------|
|--------------------------------------------------------------------|
|
|                                   PM--------------|
|--------------------------------------------------------------------|
|--------------------------------------------------------------------|
|--7---------------------------------------------------------9-------|
|--5---------------------------------------------------------7-------|
|--------0-----0----0----0----0-----0-------2--------3---------------|
|--------------------------------------------------------------------|


|--------15-13-12----15-13-12----------------------|
|-20--21----------15----------15b17-(15)pb17-------|
|--------------------------------------------------|
|--------------------------------------------------|
|--------------------------------------------------|
|--------------------------------------------------|
|
|--------------------------------------------------|
|--------------------------------------------------|
|-(9)--------9-----------------8-----(8)-----8-----|
|-(7)--------7-----------------6-----(6)-----6---2-|
|---------------------0------------------------0-0-|
|--------------------------------------------------|


|-------------------------------------------------|
|-------------------------------------------------|
|-17-14-------17-14-------17-14----------14-17-14-|
|-------17-14-------17-14-------17-14-17----------|
|-------------------------------------------------|
|-------------------------------------------------|
|
|                          PM---------|
|-------------------------------------------------|
|-------------------------------------------------|
|--------------------------------------------5----|
|--2-----------------------------------------3----|
|--0-----0-----0--0--0--0--0-----2-----3----------|
|-------------------------------------------------|


                      ~~~~~~~~~~~~~~~~~~~
|------------------------------------------20-17--------|
|--------------------16b16.5---(16)b16.5---------20-17--|
|--------17-14------------------------------------------|
|-17--14-------17-14------------------------------------|
|-------------------------------------------------------|
|-------------------------------------------------------|
|
|                                PM--------|
|-------------------------------------------------------|
|-------------------------------------------------------|
|-(5)---------------------------------------------7-----|
|-(3)---------------------------------------------5-----|
|---------0-----0--0--0------0---0-------2--3-----------|
|-------------------------------------------------------|


|-20-17-------20-17----------17-20-17-------22-17-|
|-------20-17-------20-17-20----------20-17-------|
|-------------------------------------------------|
|-------------------------------------------------|
|-------------------------------------------------|
|-------------------------------------------------|
|
|                          PM---------|
|-------------------------------------------------|
|-------------------------------------------------|
|--7-----------------------------------------9----|
|--5-----------------------------------------7----|
|--------0-----0--0--0--0--0-----2-----3----------|
|-------------------------------------------------|


|-20--17-------22-17-20-17-15b18---(15)b18----|
|--------20-17--------------xb18----(x)pb18---|
|---------------------------------------------|
|---------------------------------------------|
|---------------------------------------------|
|---------------------------------------------|
|
|---------------------------------------------|
|---------------------------------------------|
|-(9)-----9-----------8----(8)---8------------|
|-(7)-----7-----------6----(6)---6----------2-|
|---------------0--------------------0------0-|
|---------------------------------------------|


   TP    TP       TP   TP         TP     TP    TP  TP   TP
|--------------------------|---------------------------14-|
|-17----13-------15---17---|-----13-----15---(15)-17---16-|
|-17----14-------16---17---|-----14-----16---(16)-17------|
|--------------------------|------------------------------|
|--------------------------|------------------------------|
|--------------------------|------------------------------|
|
| Gtr I
|                 PM--|                        PM----|
|--------------------------|------------------------------|
|--------------------------|------------------------------|
|------------------------5-|-(5)------------------------7-|
|-(2)--------------------3-|-(3)------------------------5-|
|-(0)-0--0-0-0-0--0-2--3---|------0-0-0--0-0---0---2-3----|
|--------------------------|------------------------------|
|
| Gtr II
|                 PM--|                        PM----|
|--------------------------|------------------------------|
|--------------------------|------------------------------|
|------------------------5-|-(5)------------------------7-|
|-(2)--------------------3-|-(3)------------------------5-|
|-(0)-0--0-0-0-0--0-2--3---|------0-0-0--0-0---0---2-3----|
|--------------------------|------------------------------|


   TP    TP       TP     TP
|-15-------------14-----13-|---------------------|
|-17----17-------15-----14-|-14------------------|
|-------17-----------------|-14------------------|
|--------------------------|---------------------|
|--------------------------|---------------------|
|--------------------------|---------------------|
|
|                 PM--|
|--------------------------|---------------------|
|--------------------------|---------------------|
|-(7)--------------------9-|-(9)-9---8-(8)-8---5-|
|-(5)--------------------7-|-(7)-7---6-(6)-6---7-|
|-----0--0-0-0-0--0-2-3----|-------0---------0---|
|--------------------------|---------------------|
|
|                 PM--|
|--------------------------|---------------------|
|--------------------------|---------------------|
|-(7)--------------------9-|-(9)-9---8-(8)-8-----|
|-(5)--------------------7-|-(7)-7---6-(6)-6---2-|
|-----0--0-0-0-0--0-2-3----|-------0---------0-0-|
|--------------------------|---------------------|


  Gtr I
      PM  PM    PM        PM|   PM
|-------------------|-------------------------|
|-------------------|-------------------------|
|-(5)---7---7-5---5-|-(5)-----7---7b9-(7)-5-5-|
|-(7)-7-7-7-7-7-7-6-|-(6)-6-6-6-6-----------5-|
|-------------------|-------------------------|
|-------------------|-------------------------|
|
| Gtr II
|-------------------|-------------------------|
|-------------------|-------------------------|
|-------------------|-------------------------|
|-(2)---------------|-------------------------|
|-(0)---------7---7-|-(7)--------------7----5-|
|-------------5---4-|-(4)--------------4----3-|


      PM  PM    PM|                   PM
|-------------------|---------0-(0)--------|
|-------------------|-------0-------0------|
|-(5)---7---7-5-----|-----5-----------5-5--|
|-(5)-5-5-5-5-5-5-4-|-(4)---------------7--|
|-------------------|----------------------|
|-------------------|----------------------|
|
|     PM  PM  PM|         PM----------|
|-------------------|----------------------|
|-------------------|----------------------|
|-------------------|----------------------|
|-------------------|----------------------|
|-(5)-5-5-5-5-5-5-5-|-(5)-5-5-5--5--5-5-7--|
|-(3)-3-3-3-3-3-3-2-|-(2)-2-2-2--2--2-2-5--|


  Gtr IV
|-------------------|-------------------|
|-------------------|-------------------|
|-------------------|-------------------|
|-------------------|-------------------|
|-------------------|-------------------|
|-------------------|-------------------|
|
| Gtr I
|-------------------|-------------------|
|-------------------|-------------------|
|-(5)---7---7-5---5-|-(5)---7---7-5---5-|
|--7--7-7-7-7-7-7-6-|-(6)-6-6-6-6-6-6-5-|
|-------------------|-------------------|
|-------------------|-------------------|
|
| Gtr II
|     PM  PM  PM|         PM  PM  PM|
|-------------------|-------------------|
|-------------------|-------------------|
|-------------------|-------------------|
|-------------------|-------------------|
|-(7)-7-7-7-7-7-7-7-|-(7)-7-7-7-7-7-7-5-|
|-(5)-5-5-5-5-5-5-4-|-(4)-4-4-4-4-4-4-3-|


|-------------------|----------------------|
|-------------------|----------------------|
|-------------------|-------------------14-|
|-------------------|----------------------|
|-------------------|-------------------12-|
|-------------------|----------------------|
|
|-------------------|---------0-(0)--------|
|-------------------|-------0-------0------|
|-(5)---7---7-5-----|-----5-----------5--9-|
|-(5)-5-5-5-5-5-5-4-|-(4)----------------7-|
|-------------------|----------------------|
|-------------------|----------------------|
|
|     PM  PM  PM|         PM----------|
|-------------------|----------------------|
|-------------------|----------------------|
|-------------------|----------------------|
|-------------------|----------------------|
|-(5)-5-5-5-5-5-5-5-|-(5)-5-5-5--5--5-5--7-|
|-(3)-3-3-3-3-3-3-2-|-(2)-2-2-2--2--2-2--5-|


|----------------------|----------------------|
|----------------13-12-|-(12)--------------12-|
|-(14)-----------------|----------------14----|
|----------------------|----------------------|
|-(12)-----------15-14-|-(14)-----------12-14-|
|----------------------|----------------------|
|
| Gtr I
|          PM
|----------------------|----------------------|
|----------------------|----------------------|
|--(9)---9---9-------9-|--(9)---9---9-------7-|
|--(7)-7-7-7-7-7--7--6-|--(6)-6-6-6-6-6--6--5-|
|----------------------|----------------------|
|----------------------|----------------------|
|
|      PM  PM  PM|            PM  PM  PM|
|----------------------|----------------------|
|----------------------|----------------------|
|----------------------|----------------------|
|----------------------|----------------------|
|--(7)-7-7-7-7-7--7--7-|--(7)-7-7-7-7-7--7--5-|
|--(5)-5-5-5-5-5--5--4-|--(4)-4-4-4-4-4--4--3-|


|------------------/12-|-(12)----------------------------|
|-(12)-----------------|------15-13-12-13-12-13-12-------|
|----------------------|---------------------------12-14-|
|------------------/14-|-(14)-12-------------------------|
|-(14)-----------------|---------15-14-15-14-15-14----12-|
|----------------------|---------------------------15----|
|
|----------------------|---------------------------------|
|----------------------|---------------------------------|
|--(7)---7---7-------7-|--(7)-----7-----7--------------9-|
|--(5)-5-5-5-5-5-5---4-|--(4)--4--4--4--4--4--------4--7-|
|----------------------|---------------------------------|
|----------------------|---------------------------------|
|
|      PM  PM  PM|             PM------------------|
|----------------------|---------------------------------|
|----------------------|---------------------------------|
|----------------------|---------------------------------|
|----------------------|---------------------------------|
|--(5)-5-5-5-5-5-5---5-|--(5)--5--5--5--5--5--------5--7-|
|--(3)-3-3-3-3-3-3---2-|--(2)--2--2--2--2--2--------2--5-|


|----------------------|----------------------|
|----------------13-12-|-(12)--------------12-|
|-(14)-----------------|----------------14----|
|----------------------|----------------------|
|-(12)-----------15-14-|-(14)-----------12-14-|
|----------------------|----------------------|
|
|          PM
|----------------------|----------------------|
|----------------------|----------------------|
|--(9)---9---9-------9-|--(9)---9---9-------7-|
|--(7)-7-7-7-7-7--7--6-|--(6)-6-6-6-6-6--6--5-|
|----------------------|----------------------|
|----------------------|----------------------|
|
|      PM  PM  PM|            PM  PM  PM|
|----------------------|----------------------|
|----------------------|----------------------|
|----------------------|----------------------|
|----------------------|----------------------|
|--(7)-7-7-7-7-7--7--7-|--(7)-7-7-7-7-7--7--5-|
|--(5)-5-5-5-5-5--5--4-|--(4)-4-4-4-4-4--4--3-|


|------------------/12-|-(12)----------------------------|
|-(12)-----------------|------15-13-12-13-12-13-12-------|
|----------------------|---------------------------12-14-|
|------------------/14-|-(14)-12-------------------------|
|-(14)-----------------|---------15-14-15-14-15-14----12-|
|----------------------|---------------------------15----|
|
|----------------------|---------------------------------|
|----------------------|---------------------------------|
|--(7)---7---7-------7-|---7------7-----7----------------|
|--(5)-5-5-5-5-5-5---4-|---4---4--4--4--4--4--------4----|
|----------------------|-------------------------------7-|
|----------------------|-------------------------------5-|
|
|      PM  PM  PM|             PM------------------|
|----------------------|---------------------------------|
|----------------------|---------------------------------|
|----------------------|---------------------------------|
|----------------------|---------------------------------|
|--(5)-5-5-5-5-5-5---5-|--(5)--5--5--5--5--5--------5--7-|
|--(3)-3-3-3-3-3-3---2-|--(2)--2--2--2--2--2--------2--5-|


  Gtr III
|----------------------------------|----------------------------------|
|----------------------------------|----------------------------------|
|-----------12b14-(12)pb14\-----/9-|-(9)---12b14-------(12)pb14-14-17-|
|----------------------------------|----------------------------------|
|----------------------------------|----------------------------------|
|----------------------------------|----------------------------------|
|
| Gtr IV
|----------------------------------|----------------------------------|
|----------------------------------|----------------------------------|
|-(14)\----------------------------|----------------------------------|
|----------------------------------|----------------------------------|
|-(12)\----------------------------|----------------------------------|
|----------------------------------|----------------------------------|
|
| Gtrs I, II
|       PM--|               PM|          PM------|   PM|
|----------------------------------|----------------------------------|
|----------------------------------|----------------------------------|
|----------------------------------|----------------------------------|
|----------------------------------|----------------------------------|
|--(7)--7-7--7------7-------7-7--7-|-(7)-7--7----7-7-7---7-------5----|
|--(5)--5-5--5------5-------5-5--4-|-(4)-4--4----4-4-4---4-------3----|


|----------------------------------------------------|-----------------------17-19-|
|----------------------------------------------------|-----------------------------|
|-14-----14-17-14----14-17-14---14-------------------|-----------------------------|
|-----13----------16----------x----17-14-------------|-----------------------------|
|----------------------------------------17b19==(17)-|-(17)r-----17-(17)-----------|
|----------------------------------------------------|-----------------------------|
|
|----------------------------------------------------|-----------------------------|
|----------------------------------------------------|-----------------------------|
|----------------------------------------------------|-----------------------------|
|----------------------------------------------------|-----------------------------|
|----------------------------------------------------|-----------------------------|
|----------------------------------------------------|-----------------------------|
|
|         PM---------|              PM---|                   PM--|       PM|
|----------------------------------------------------|-----------------------------|
|----------------------------------------------------|-----------------------------|
|----------------------------------------------------|-----------------------------|
|----------------------------------------------------|-----------------------------|
|-(5)-----5-----5-----5-----5-------5-----5-------5--|--(5)--5-5--5---5--5-5-----7-|
|-(3)-----3-----3-----3-----3-------3-----3-------2--|--(2)--2-2--2---2--2-2-----5-|


  Gtr III
                                        ~~~~~~~
|-19b20-------19b20-----19-17-|-20p=17-------------------|
|-----------------------------|--------17-(17)-----------|
|-----------------------------|--------------------------|
|-----------------------------|--------------------------|
|-----------------------------|--------------------------|
|-----------------------------|--------------------------|
|
| Gtrs I, II
|       PM--|       PM|                 PM-----|   PM|
|-----------------------------|--------------------------|
|-----------------------------|--------------------------|
|-----------------------------|--------------------------|
|-----------------------------|--------------------------|
|-(7)---7-7-7--7----7-7--7----|-(7)-----7---7--7-7-7-7-5-|
|-(5)---5-5-5--5----5-5--4----|-(4)-----4---4--4-4-4-4-3-|


|-------22b24---22---20---19---20---19---|
|-----x----------------------------------|
|---x------------------------------------|
|-x--------------------------------------|
|----------------------------------------|
|----------------------------------------|
|
|             PM--------|    PM---|
|----------------------------------------|
|----------------------------------------|
|----------------------------------------|
|----------------------------------------|
|-------(5)---5----5----5--5-5----5----5-|
|-------(3)---3----3----3--3-3----3----2-|


                     Q=140
    ~~~
|--22----------------|-----------------|
|--------------------|-----------------|
|--------------------|-----------------|
|--------------------|-----------------|
|--------------------|-----------------|
|--------------------|-----------------|
|
|--------------------|-----------------|
|--------------------|-----------------|
|--------------------|-----------------|
|-/12-10-9-----------|-10-9-7----------|
|----------12-10-8---|--------11-8-7---|
|--------------------|-----------------|


    Gtr IV
||----------------------------------------|
||o---------13---12---(12)-------13-------|
||------------------------------------9---|
||----------------------------------------|
||o---------------------------------------|
||----------------------------------------|
|
|   Gtr III
||----------------------------------------|
||o---------------------------------------|
||----------------------------------------|
||----------10----9----(9)-------10-------|
||o-----------------------------------7---|
||----------------------------------------|
|
|   Gtrs I, II
||----------------------------------------|
||o---------------------------------------|
||----------------------------------------|
||--7-7-7-7--7-7--7-7---7--7-7-7--7-7-7-7-|
||o---------------------------------------|
||--5-5-5-5--5-5--5-5---5--5-5-5--5-5-5-5-|


|-------------------------------------------|
|-----------13---12---(12)-------13---------|
|-(9)---------------------------------10----|
|-------------------------------------------|
|-------------------------------------------|
|-------------------------------------------|
|
|-------------------------------------------|
|-------------------------------------------|
|-------------------------------------------|
|-----------10----9----(9)-------10---------|
|-(7)----------------------------------8----|
|-------------------------------------------|
|
|-------------------------------------------|
|-------------------------------------------|
|-------------------------------------------|
|--7--7-7-7--7-7--7-7---7--7-7-7--7-7--7-7--|
|-------------------------------------------|
|--5--5-5-5--5-5--5-5---5--5-5-5--5-5--5-5--|


|------------------------------------------|
|------------13---12---(12)-------10---9---|
|-(10)-------------------------------------|
|------------------------------------------|
|------------------------------------------|
|------------------------------------------|
|
|------------------------------------------|
|------------------------------------------|
|------------------------------------------|
|------------10----9----(9)--------7---6---|
|--(8)-------------------------------------|
|------------------------------------------|
|
|------------------------------------------|
|------------------------------------------|
|---7--7-7-7--7-7--7-7---7--7-7-7--7-7-7-7-|
|------------------------------------------|
|---5--5-5-5--5-5--5-5---5--5-5-5--5-5-5-5-|
|------------------------------------------|


|-----------------------------------------|
|-(9)-------10---12---(12)-------9---10---|
|-----------------------------------------|
|-----------------------------------------|
|-----------------------------------------|
|-----------------------------------------|
|
|-----------------------------------------|
|-----------------------------------------|
|-----------------------------------------|
|-(6)--------7----9----(9)-------6----7---|
|-----------------------------------------|
|-----------------------------------------|
|
|-----------------------------------------|
|-----------------------------------------|
|--9--9-9-9--9-9--9-9---9--9-9-9-9-9--9-9-|
|-----------------------------------------|
|--7--7-7-7--7-7--7-7---7--7-7-7-7-7--7-7-|
|-----------------------------------------|


|----------------12------------10------------12--------|
|-(10)----------(13)----------(12)----------(13)-------|
|------------------------------------------------------|
|------------------------------------------------------|
|------------------------------------------------------|
|------------------------------------------------------|
|
|------------------------------------------------------|
|------------------------------------------------------|
|------------------------------------------------------|
|--(7)-----------10-------------9------------10--------|
|------------------------------------------------------|
|------------------------------------------------------|
|
|------------------------------------------------------|
|------------------------------------------------------|
|--10--10-10-10--10--10-10-10--10--10-10-10---9--9-9-9-|
|------------------------------------------------------|
|---8---8--8--8---8---8--8--8---8---8--8--8---7--7-7-7-|
|------------------------------------------------------|


|------------------------------------|
|--13--------------------------------|
|-(10)-------------------------------|
|------------------------------------|
|------------------------------------|
|------------------------------------|
|
|------------------------------------|
|------------------------------------|
|------------------------------------|
|------------------------------------|
|---8--------------------------------|
|-------------------------
Добавлено: 05.05.2012
Другие материалы по этой песне:

Страница создана 29.03.2012
http://primanota.ru/arch-enemy/taking-back-my-soul-chords.htm
Привет, Гость.
Предлагаем пройти революционный курс по гитаре.
Подарок от PrimaNota.Ru, забирай!