PrimaNota.ru - самый крупный в мире бесплатный архив песенных текстов, аккордов, табулатур и нот


Arch Enemy - Starbreaker - текст песни, таба, видео

Регистрация Запомнить меня
Войти через:  Facebook Google Twitter Vk Yandex Mail.ru

Arch Enemy - Starbreaker - текст песни, таба, видео

Печатать
Просмотров: 197
Авторы: Glenn Tipton, Rob Halford, Kenneth Downing
Авторы музыки: Glenn Tipton, Rob Halford, Kenneth Downing
Авторы текста: Glenn Tipton, Rob Halford, Kenneth Downing
Arch Enemy: Starbreaker
Album: Bonus CD [Wages of Sin]
Tabbed by: Swamplord
Tuning: Drop B

                  PM PM PM PM PM PM PM PM PM PM PM PM  
                  |--3--|  |--3--|  |--3--|  |--3--|   
       E  E  Q    S  S  S  S  S  S  S  S  S  S  S  S   
C#||--------------------------------------------------|
G#||--------------------------------------------------|
E ||*-------------------------------------------------|
B ||*-------------------------------------------------|
F#||---5--4--2----------------------------------------|
B ||---5--4--2----2--2--2--2--2--2--2--2--2--2--2--2--|


  PM PM PM PM PM PM PM PM PM PM PM PM PM PM PM                                
  |--3--|  |--3--|  |--3--|  |--3--|  |--3--|                                 
  S  S  S  S  S  S  S  S  S  S  S  S  S  S  S  E  E  E     H.           Q     
--------------------------------------------------------|--------------------|
--------------------------------------------------------|--------------------|
--------------------------------------------------------|--------------------|
--------------------------------------------------------|--------------------|
-----------------------------------------------5--4--0--|--L------------7----|
--2--2--2--2--2--2--2--2--2--2--2--2--2--2--2--5--4--0--|--L------------7----|


                             PM PM PM PM PM PM PM PM PM PM PM PM  
                             |--3--|  |--3--|  |--3--|  |--3--|   
  H.              E  E  Q    S  S  S  S  S  S  S  S  S  S  S  S   
---------------|-------------------------------------------------|
---------------|-------------------------------------------------|
---------------|-------------------------------------------------|
---------------|-------------------------------------------------|
--L------------|--5--4--2----------------------------------------|
--L------------|--5--4--2----2--2--2--2--2--2--2--2--2--2--2--2--|


  PM PM PM PM       PM PM       PM PM PM                                
  |--3--|  |--3-| |--3-|  |-3-| |--3--|                                 
  S  S  S  S  S S S S  S  S S S S  S  S  E  E  E     H.           Q     
--------------------------------------------------|--------------------|
--------------------------------------------------|--------------------|
--------------------------------------------------|--------------------|
--------------------------------------------------|--------------------|
-----------------------------------------5--4--0--|--L------------9----|
--2--2--2--2--2-2-2-2--2--2-2-2-2--2--2--5--4--0--|--L------------9----|


  H.            3x  H.           Q       Q    Q    Q    E  E   
----------------||--------------------|-----------------------|
----------------||--------------------|-----------------------|
---------------*||--------------------|-----------------------|
---------------*||--9------------7----|--9---------7----7--9--|
--L-------------||--7------------5----|--7----9----5----5--7--|
--L-------------||--------------------|-------9---------------|


  Q    Q    E  Q    E     Q    H           H.           Q     
-----------------------|----------------|--------------------|
-----------------------|----------------|--------------------|
-----------------------|----------------|--------------------|
--9----9----9----------|----------------|--9------------7----|
--7----7----7--5----7--|--7----7--------|--7------------5----|
---------------5----7--|--7----7--------|--------------------|


  Q    Q    Q    E  E     Q    Q    E  Q    E     Q    H         
-----------------------|-----------------------|----------------|
-----------------------|-----------------------|----------------|
-----------------------|-----------------------|----------------|
--9---------7----7--9--|--9----9----9----------|----------------|
--7----9----5----5--7--|--7----7----7--5----7--|--7----7--------|
-------9---------------|---------------5----7--|--7----7--------|


               PM PM PM PM PM PM PM PM PM PM PM PM  
               |--3--|  |--3--|  |--3--|  |--3--|   
    E  E  Q    S  S  S  S  S  S  S  S  S  S  S  S   
|--------------------------------------------------|
|--------------------------------------------------|
|*-------------------------------------------------|
|*-------------------------------------------------|
|---5--4--2----------------------------------------|
|---5--4--2----2--2--2--2--2--2--2--2--2--2--2--2--|


  PM PM PM PM PM PM PM PM PM PM PM PM PM PM PM                                
  |--3--|  |--3--|  |--3--|  |--3--|  |--3--|                                 
  S  S  S  S  S  S  S  S  S  S  S  S  S  S  S  E  E  E     H.           Q     
--------------------------------------------------------|--------------------|
--------------------------------------------------------|--------------------|
--------------------------------------------------------|--------------------|
--------------------------------------------------------|--------------------|
-----------------------------------------------5--4--0--|--L------------7----|
--2--2--2--2--2--2--2--2--2--2--2--2--2--2--2--5--4--0--|--L------------7----|


                             PM PM PM PM PM PM PM PM PM PM PM PM  
                             |--3--|  |--3--|  |--3--|  |--3--|   
  H.              E  E  Q    S  S  S  S  S  S  S  S  S  S  S  S   
---------------|-------------------------------------------------|
---------------|-------------------------------------------------|
---------------|-------------------------------------------------|
---------------|-------------------------------------------------|
--L------------|--5--4--2----------------------------------------|
--L------------|--5--4--2----2--2--2--2--2--2--2--2--2--2--2--2--|


  PM PM PM PM       PM PM       PM PM PM                                
  |--3--|  |--3-| |--3-|  |-3-| |--3--|                                 
  S  S  S  S  S S S S  S  S S S S  S  S  E  E  E     H.           Q     
--------------------------------------------------|--------------------|
--------------------------------------------------|--------------------|
--------------------------------------------------|--------------------|
--------------------------------------------------|--------------------|
-----------------------------------------5--4--0--|--L------------9----|
--2--2--2--2--2-2-2-2--2--2-2-2-2--2--2--5--4--0--|--L------------9----|


  H.                H.           Q       Q    Q    Q    E  E   
----------------||--------------------|-----------------------|
----------------||--------------------|-----------------------|
---------------*||--------------------|-----------------------|
---------------*||--9------------7----|--9---------7----7--9--|
--L-------------||--7------------5----|--7----9----5----5--7--|
--L-------------||--------------------|-------9---------------|


  Q    Q    E  Q    E     Q    H           H.           Q     
-----------------------|----------------|--------------------|
-----------------------|----------------|--------------------|
-----------------------|----------------|--------------------|
--9----9----9----------|----------------|--9------------7----|
--7----7----7--5----7--|--7----7--------|--7------------5----|
---------------5----7--|--7----7--------|--------------------|


  Q    Q    Q    E  E     Q    Q    E  Q    E     Q    H         
-----------------------|-----------------------|----------------|
-----------------------|-----------------------|----------------|
-----------------------|-----------------------|----------------|
--9---------7----7--9--|--9----9----9----------|----------------|
--7----9----5----5--7--|--7----7----7--5----7--|--7----7--------|
-------9---------------|---------------5----7--|--7----7--------|


                                          PM PM PM PM      PM PM  
  W                   W                   E  E  E  E  Q    E  E   
-------------------|-------------------|-------------------------|
-------------------|-------------------|-------------------------|
-------------------|-------------------|-------------------------|
-------------------|-------------------|-------------------------|
--9----------------|--0----------------|--4--4--4--4-------4--4--|
--9----------------|--0----------------|--4--4--4--4-------4--4--|


  PM PM         W               PM PM PM PM PM PM    PM PM PM PM PM PM PM PM  
  E  E  Q    E  Q    E     Q    E  E  E  E  E  E     E  E  E  E  E  E  E  E   
------------------------|-------------------------|--------------------------|
------------------------|-------------------------|--------------------------|
------------------------|-------------------------|--------------------------|
------------------------|-------------------------|--------------------------|
--4--4-------0----------|--5----------------------|--------------------------|
--4--4-------0--4-------|--5----5--5--5--5--5--5--|--5--5--5--5--5--5--5--5--|


                                                       PM PM PM PM PM PM  
  Q.      Q.     Q        E  Q.     Q     Q       Q    E  E  E  E  E  E   
-----------------------|-----------------------|-------------------------|
-----------------------|-----------------------|-------------------------|
-----------------5~----|--L--------------------|-------------------------|
----------5------------|-----5------------5----|-------------------------|
--3~-------------------|------------3~---------|--5----------------------|
-----------------------|-----------------------|--5----5--5--5--5--5--5--|


  PM PM PM PM PM PM PM PM                                    W            
  E  E  E  E  E  E  E  E     W                   E   E  E    H        E   
--------------------------|-------------------|--------------------------|
--------------------------|-------------------|--------------------------|
--------------------------|-------------------|--------------------------|
--------------------------|-------------------|--------------------------|
--------------------------|--0----------------|--------------------------|
--5--5--5--5--5--5--5--5--|--0----------------|--0--12--0--<>3--------L--|


       PM PM PM PM PM PM    PM PM PM PM PM PM PM PM                          
  Q    E  E  E  E  E  E     E  E  E  E  E  E  E  E     Q.      Q.     Q      
-------------------------|--------------------------|-----------------------|
-------------------------|--------------------------|-----------------------|
-------------------------|--------------------------|-----------------5~----|
-------------------------|--------------------------|----------5------------|
--5----------------------|--------------------------|--3~-------------------|
--5----5--5--5--5--5--5--|--5--5--5--5--5--5--5--5--|-----------------------|


                               PM PM PM PM PM PM    PM PM PM PM PM PM PM PM  
  E  Q.     Q     Q       Q    E  E  E  E  E  E     E  E  E  E  E  E  E  E   
-----------------------|-------------------------|--------------------------|
-----------------------|-------------------------|--------------------------|
--L--------------------|-------------------------|--------------------------|
-----5------------5----|-------------------------|--------------------------|
------------3~---------|--5----------------------|--------------------------|
-----------------------|--5----5--5--5--5--5--5--|--5--5--5--5--5--5--5--5--|


  Crosses to the solo   
  W                     
----------------------||
----------------------||
----------------------||
----------------------||
--0-------------------||
--0-------------------||




Duration Legend
---------------
W - whole
H - half
Q - quarter
E - 8th
S - 16th
. - note dotted
|-n-| -n- tuplets


Tablature Legend
----------------
L - tied note
<> - Harmonic
h - hammer on
p - pull off
b - bend
~ - vibrato
W - wide vibrato
Добавлено: 19.03.2012
Другие материалы по этой песне:
  • Аккорды и текст

Страница создана 19.03.2012
http://primanota.ru/arch-enemy/starbreaker-chords.htm
Привет, Гость.
Предлагаем пройти революционный курс по гитаре.
Подарок от PrimaNota.Ru, забирай!