PrimaNota.ru - самый крупный в мире бесплатный архив песенных текстов, аккордов, табулатур и нот


Arch Enemy - Slaves Of Yesterday - текст песни, таба, видео

Регистрация Запомнить меня
Войти через:  Facebook Google Twitter Vk Yandex Mail.ru

Arch Enemy - Slaves Of Yesterday - текст песни, таба, видео

Печатать
Просмотров: 236
Авторы музыки: Daniel Erlandsson, Michael Amott, Christopher Amott
Авторы текста: Angela Gossow
   ARCH ENEMY--SLAVES OF YESTERDAY--DOOMSDAY MACHINE
   DROP C (C-G-C-F-A-D)
   tjhwazhere


   Intro {play 6 times}
D|--------------------------|--------------------------|
A|--------------------------|--------------------------|
F|o-------------------------|-------------------------o|
C|--------------------------|--------------------------|
G|o-------------8-7---------|--------------8-7--8--10-o|
C|-5-3-2-0-0----------------|-5-3-2-0-0----------------|
pm  . . . .                    . . . .

Intro Solo                    
D|--------------13-12~~~(12)\|-------------13-12-13-15~~~--|
A|---------------------------|-----------------------------|
F|---------------------------|-----------------------------|
C|---------------------------|-----------------------------|
G|---------------------------|-----------------------------|
C|---------------------------|-----------------------------|

D|---------------13--12~~~~--|15-13-12---------------------|
A|---------------------------|---------15-13-12------------|
F|---------------------------|------------------15-14-12~~~|
C|---------------------------|-----------------------------|
G|---------------------------|-----------------------------|
C|---------------------------|-----------------------------|
                                       

Fill 1
D|--------------------------|
A|--------------------------|
F|-8-8-8-8-8---8-8-8-8-8----|
C|-8-8-8-8-8---8-8-8-8-8----|
G|-6-6-6-6-6---6-6-6-6-6----|
C|--------------------------|

Pre-Verse
D|----------------------------|---------------------------|
A|----------------------------|---------------------------|
F|o7--------------------------|---------------------------|
C|-7--------------------------|---------------------------|
G|o5-0------------------------|3--0-----------------------|
C|---0--------------0-0-0-0-0-|3--0-------------0-0-0-0-0-|
pm                  . . . . .                   . . . . .

D|---------------------------|----------------------------|
A|---------------------------|----------------------------|
F|7--------------------------|---------------------------o|
C|7--------------------------|----------------------------|
G|5-0------------------------|1---1----------5------5----o|
C|--0--------------0-0-0-0-0-|1---1------0-0-5--0-0-5-----|
pm                 . . . . .             . .    . .

Verses
D|----------------------------|---------------------------|
A|----------------------------|---------------------------|
F|o7--------------------------|---------------------------|
C|-7--------------------------|---------------------------|
G|o5-0----0----0--------------|3--0----0----0-------------|
C|---0----0----0----0-0-0-0-0-|3--0----0----0---0-0-0-0-0-|
pm                  . . . . .                   . . . . .

D|---------------------------|----------------------------|
A|---------------------------|----------------------------|
F|7--------------------------|---------------------------o|
C|7--------------------------|----------------------------|
G|5-0----0----0--------------|1---1----------5------5----o|
C|--0----0----0----0-0-0-0-0-|1---1------0-0-5--0-0-5-----|
pm                 . . . . .             . .    . . 
                                            
Chorus                                       Don't play 2nd time           
D|-------------------------|-----------------|--------|
A|-------------------------|-----------------|--------|
F|o------------------------|-----------------|-------o|
C|-------------------------|-----------------|--------|
G|o------8--7--------------|-------8--7-8-10-|-------o|
C|0----------------5-3-2-0-|0----------------|5-3-2-0-|
pm                 . . . .                    . . . .
     
Pre-Verse x2
Verse x2
Chorus x2                             

Interlude 1
D|------------------------------|--------------------------------|
A|------------------------------|--------------------------------|
F|0-----1-----8---7-----3-----7-|--6----2-----6---5----1-----3p1o|
C|--0-0---0-0---0---0-0---0-0---|0--0-0---0-0---0--0-0---0-0-----|
G|------------------------------|-------------------------------o|
C|------------------------------|--------------------------------|

Interlude 2 play twice under solo 2
D|----------------------------|---------------------------|
A|----------------------------|---------------------------|
F|----------------------------|---------------------------|
C|5-5-5-5-5-5-5-5-5-5-5-5-5-5-|3-3-3-3-3-3-3-3-3-3-3-3-3-3|
G|5-5-5-5-5-5-5-5-5-5-5-5-5-5-|3-3-3-3-3-3-3-3-3-3-3-3-3-3|
C|5-5-5-5-5-5-5-5-5-5-5-5-5-5-|3-3-3-3-3-3-3-3-3-3-3-3-3-3|

play twice under solo 3
D|----------------------------|---------------------------|
A|----------------------------|---------------------------|
F|7------------7--------------|5------------5-------------|
C|5------------5--------------|3------------3-------------|
G|5------------5--------------|3------------3-------------|
C|5------------5--------------|3------------3-------------|

play interlude 2 twice

Fill 2
D|---|
A|---|
F|-7-|
C|-5-|
G|-5-|                             
C|-5-| 

play chorus until fade   

so yeah, thats pretty much it...if you figure out the solos let me know, and ill put them up.
Добавлено: 06.07.2012
Другие материалы по этой песне:

Страница создана 01.06.2012
http://primanota.ru/arch-enemy/slaves-of-yesterday-chords.htm
Привет, Гость.
Предлагаем пройти революционный курс по гитаре.
Подарок от PrimaNota.Ru, забирай!