PrimaNota.ru - самый крупный в мире бесплатный архив песенных текстов, аккордов, табулатур и нот


Arch Enemy - Skeleton Dance - текст песни, таба, видео

Регистрация Запомнить меня
Войти через:  Facebook Google Twitter Vk Yandex Mail.ru

Arch Enemy - Skeleton Dance - текст песни, таба, видео

Печатать
Просмотров: 238
Уроки эстрадного вокала в Санкт-Петербурге
Авторы музыки: Daniel Erlandsson, Michael Amott, Christopher Amott
Авторы текста: Angela Gossow
                         Skeleton Dance                                  


                                                               Arch Enemy




      W    W               PM PM PM PM PM                      
      Q    H.              E  E  E  E  Q         H.            
C ||--------------------|-------------------|-----------------|
G ||--------------------|-------------------|-----------------|
D#||--9----L------------|--9--9--9--9--9----|--/14------------|
A#||--------------------|-------------------|-----------------|
F ||--------------------|-------------------|-----------------|
C ||--------------------|-------------------|-----------------|


   E   E   Q     E   E      Q     H            H.            
------------------------|------------------|----------------|
------------------------|------------------|----------------|
--16--13---L----16--12--|---L--------------|----------------|
------------------------|--14--------------|----------------|
------------------------|------------------|----------------|
------------------------|--------12--------|---L------------|


  Q.      E   Q        W                    H.           H.            
-------------------|--------------------|-----------------------------|
---------12---L----|---L----------------|-----------------------------|
-------------------|--------------------|--13-------------------------|
-------------------|--------------------|-----------------------------|
-------------------|--------------------|-----------------------------|
-------------------|--------------------|-----------------------------|


   H.            E   E      Q     E   Q     Q     E   
------------------------|----------------------------|
------------------------|----------------------------|
--14-------------L--16--|--13----16--12--------------|
------------------------|----------------------------|
------------------------|-------------------------3--|
------------------------|------------------15\----1--|


     PM PM PM PM PM PM PM PM PM    PM                         
  E  E  S  E  S  E  E  S  E  S     E  E  E  E  E    E  E  E   
--------------------------------|----------------------------|
--------------------------------|----------------------------|
--------------------------------|----------------------------|
--------------------------------|----------------------------|
--L--2--2--2--2--2--2--2--2--2--|--2-------------------------|
--L--0--0--0--0--0--0--0--0--0--|--0--0--1--4--4br--L--1--0--|


     PM PM PM PM PM PM PM PM PM                            PM PM PM PM  
  E  E  S  E  S  E  E  S  E  S     S  S S S S S S  S S E.  S  S  S  S   
--------------------------------|--------------------------------------|
--------------------------------|--------------------------------------|
--------------------------------|--2p-1---1---1-2p-1---1---------------|
--------------------------------|-------3---3--------3-----------------|
-----2--2--2--2--2--2--2--2--2--|--------------------------------------|
--L--0--0--0--0--0--0--0--0--0--|--------------------------1--1--1--1--|


       PM PM PM PM PM PM PM PM    PM                           
  Q    S  E  S  E  E  S  E  S     E  E  E  E  E    E  E    E   
-------------------------------|------------------------------|
-------------------------------|------------------------------|
-------------------------------|-------------------------/10--|
-------------------------------|------------------------------|
--2----2--2--2--2--2--2--2--2--|--2-----------------------/8--|
--0----0--0--0--0--0--0--0--0--|--0--0--1--4--4br--L--1-------|


   H.            E  E     Q     E  E  Q.     E   
-----------------------|------------------------|
-----------------------|------------------------|
---L------------12--9--|--L----12--8--L------9--|
-----------------------|------------------------|
---L------------10--7--|--L----10--6--L------7--|
-----------------------|------------------------|


      PM PM PM PM PM PM PM PM PM    PM                         
  E   E  S  E  S  E  E  S  E  S     E  E  E  E  E    E  E  E   
---------------------------------|----------------------------|
---------------------------------|----------------------------|
--L\-----------------------------|----------------------------|
---------------------------------|----------------------------|
--L\--2--2--2--2--2--2--2--2--2--|--2-------------------------|
------0--0--0--0--0--0--0--0--0--|--0--0--1--4--4br--L--1--0--|


     PM PM PM PM PM PM PM PM PM                            PM PM PM PM  
  E  E  S  E  S  E  E  S  E  S     S  S S S S S S  S S E.  S  S  S  S   
--------------------------------|--------------------------------------|
--------------------------------|--5p-4---4---4-5p-4---4---------------|
--------------------------------|-------5---5--------5-----------------|
--------------------------------|--------------------------------------|
-----2--2--2--2--2--2--2--2--2--|--------------------------------------|
--L--0--0--0--0--0--0--0--0--0--|--------------------------1--1--1--1--|


       PM PM PM PM PM PM PM PM    PM                           
  Q    S  E  S  E  E  S  E  S     E  E  E  E  E    E  E    E   
-------------------------------|------------------------------|
-------------------------------|------------------------------|
-------------------------------|-------------------------/14--|
-------------------------------|------------------------------|
--2----2--2--2--2--2--2--2--2--|--2----------------------/12--|
--0----0--0--0--0--0--0--0--0--|--0--0--1--4--4br--L--1-------|


                                                          PM    PM    PM    PM  
   H.            E   E      Q     E   E   Q.     E     E  E  E  E  E  E  E  E   
------------------------|---------------------------|--------------------------|
------------------------|---------------------------|--------------------------|
---L------------16--13--|---L----16--12---L---------|--------4-----5-----4-----|
------------------------|------------------------4--|--L-----------------------|
---L------------14--11--|---L----14--10---L------2--|--L--2-----2-----2-----2--|
------------------------|---------------------------|--------------------------|


     PM    PM                   PM    PM    PM    PM  
  E  E  E  E  E  E  E  E     E  E  E  E  E  E  E  E   
--------------------------|--------------------------|
--------------------------|--------------------------|
--5-----4-----4--5--4-----|--------2-----4-----5-----|
--------------------------|--------------------------|
-----2-----2-----------0--|--L--0-----0-----0-----0--|
--------------------------|--------------------------|


      PM    PM PM PM PM          PM    PM    PM    PM  
   E  E  E  E  E  E  E  E     E  E  E  E  E  E  E  E   
---------------------------|--------------------------|
---------------------------|--------------------------|
--/7-----5-----4--5--4-----|--------4-----5-----4-----|
---------------------------|--------------------------|
------0-----0-----------2--|--L--2-----2-----2-----2--|
---------------------------|--------------------------|


     PM    PM                   PM    PM    PM    PM  
  E  E  E  E  E  E  E  E     E  E  E  E  E  E  E  E   
--------------------------|--------------------------|
--------------------------|--------------------------|
--5-----4-----4--5--4-----|--------2-----4-----5-----|
--------------------------|--------------------------|
-----2-----2-----------0--|--L--0-----0-----0-----0--|
--------------------------|--------------------------|


       PM     PM     PM                                    
    E  E   E  E   E  E   E  E     E  E  E  E  E  E  E  E   
-------------------------------|--------------------------|
--/15-----14-------------------|--------------------------|
-----------------15-----14-----|--------4-----5-----4-----|
-------------------------------|--------------------------|
-------0------0------0------2--|--L--2-----2-----2-----2--|
-------------------------------|--------------------------|


  E  E  E  E  E  E  E  E     E  E  E  E  E  E  E  E   
--------------------------|--------------------------|
--------------------------|--------------------------|
--5-----4-----4--5--4-----|--------2-----4-----5-----|
--------------------------|--------------------------|
-----2-----2-----------0--|--L--0-----0-----0-----0--|
--------------------------|--------------------------|


               PM PM PM                                
   E  E  E  E  E  E  E  E     E  E  E  E  E  E  E  E   
---------------------------|--------------------------|
---------------------------|--------------------------|
--/7-----5-----4--5--4-----|--------4-----5-----4-----|
---------------------------|--------------------------|
------0-----0-----------2--|--L--2-----2-----2-----2--|
---------------------------|--------------------------|


                 tr                                    
  E  E  E  E  E  Q.           E  E  E  E  E  E  E  E   
---------------------------|--------------------------|
---------------------------|--------------------------|
--5-----4-----5--4(5)------|--------4--3--------------|
---------------------------|-----5--------4--------3--|
-----2-----2---------------|--7--------------5--4-----|
---------------------------|--------------------------|


              PM PM PM PM                 PM                         
  E  E  E  E  E  E  E  E     Q.     E     E  E  E  E  E    E  E  E   
--------------------------|------------|----------------------------|
--------------------------|------------|----------------------------|
--2--1--------------------|------------|----------------------------|
--------2-----------------|------------|----------------------------|
-----------3--2--2--2--2--|---------3--|--2-------------------------|
--------------0--0--0--0--|---------1--|--0--0--1--4--4br--L--1--0--|


  PM        PM        PM            PM                   
  E  E   E  E  E   E  E   E      E  E   E   E  H         
-----------------------------|--------------------------|
-----------------------------|--------------------------|
-----------------------------|--------------------------|
--------10--------11---------|--12---------13-----------|
-----8---------9---------10--|---------11---------------|
--0---------0---------0------|------0-------------------|


  E  S S S S S S E  S S S S S S    E  S S S S S S E  S S S S S S  
--------------------------------|--------------------------------|
--------------------------------|--------------------------------|
--------------------------------|--------------------------------|
--------------------------------|--------------------------------|
--------------------------------|--------------------------------|
--2--2-2-2-2-2-2-2--2-2-2-2-2-2-|--2--2-2-2-2-2-2-2--2-2-2-2-2-2-|


  E  S S S S S S E  S S S S S S    E  S S S S S S E  S S S S S S  
--------------------------------|--------------------------------|
--------------------------------|--------------------------------|
--------------------------------|--------------------------------|
--------------------------------|--------------------------------|
--------------------------------|--------------------------------|
--2--2-2-2-2-2-2-2--2-2-2-2-2-2-|--2--2-2-2-2-2-2-2--2-2-2-2-2-2-|


  E  S S S S S S E  S S S S S S    E  S S S S S S E  S S S S S S  
--------------------------------|--------------------------------|
--------------------------------|--------------------------------|
--------------------------------|--------------------------------|
--------------------------------|--------------------------------|
--------------------------------|--------------------------------|
--2--2-2-2-2-2-2-2--2-2-2-2-2-2-|--2--2-2-2-2-2-2-2--2-2-2-2-2-2-|


  E  S S S S S S E  S S S S S S    E  S S S S S S E  S S S S S S  
--------------------------------|--------------------------------|
--------------------------------|--------------------------------|
--------------------------------|--------------------------------|
--------------------------------|--------------------------------|
--------------------------------|--------------------------------|
--2--2-2-2-2-2-2-2--2-2-2-2-2-2-|--2--2-2-2-2-2-2-2--2-2-2-2-2-2-|


  W                   W                   W                   W                 
-------------------|-------------------|-------------------|-------------------|
-------------------|-------------------|-------------------|-------------------|
-------------------|-------------------|--3----------------|--6----------------|
--4----------------|--5----------------|-------------------|-------------------|
--4----------------|-------------------|--1----------------|--4----------------|
--2----------------|--3----------------|-------------------|-------------------|


  W                   W                   W                   W                 
-------------------|-------------------|-------------------|-------------------|
-------------------|-------------------|-------------------|-------------------|
-------------------|-------------------|--3----------------|--6----------------|
--4----------------|--5----------------|-------------------|-------------------|
--4----------------|-------------------|--1----------------|--4----------------|
--2----------------|--3----------------|-------------------|-------------------|


    E  E  E  E  E  E  E  E     E  E  E  E  E  E  E  E   
|---------------------------|--------------------------|
|---------8--------8-----8--|--------8--------8-----8--|
|*--------------------------|--------------------------|
|*-----9--------9-----------|-----7--------7-----------|
|---7--------7--------7-----|--5--------5--------5-----|
|---------------------------|--------------------------|


  E  E  E  E  E  E  E  E     E  E  E  E  E  E  E  E   3x
--------------------------|---------------------------||
--------7--------7-----7--|--------8-----7-----7--8---||
--------------------------|--------------------------*||
-----5--------5-----------|--------------------------*||
--3--------3--------3-----|---------------------------||
--------------------------|--7--7-----7-----7---------||


  E  E  E  E  E  E  E  E     E  E  E  E  E  E  E  E   
--------------------------|--------------------------|
--------8--------8-----8--|--------8--------8-----8--|
--------------------------|--------------------------|
-----9--------9-----------|-----7--------7-----------|
--7--------7--------7-----|--5--------5--------5-----|
--------------------------|--------------------------|


  E  E  E  E  E  E  E  E     E  E  E  E  E  E  E  E   
--------------------------|--------------------------|
--------7--------7-----7--|--------------------------|
--------------------------|--------------------------|
-----5--------5-----------|--------------------------|
--3--------3--------3-----|--9--9--9--9--9--9--9--9--|
--------------------------|--7--7--7--7--7--7--7--7--|


  E  E  E  E  E  E  E  E     E   H.            E      W                 
--------------------------|-----------------------|--------------------|
--------------------------|-----------------------|--------------------|
--------------------------|-----------------------|--------------------|
--------------------------|-----11------------12--|---L----------------|
--9--9--9--9--9--9--9--9--|------9-------------9--|---L----------------|
--7--7--7--7--7--7--7--7--|-----------------------|--------------------|


  E  H.           E     W                   E  H.           E   
---------------------|-------------------|---------------------|
---------------------|-------------------|---------------------|
---------------------|-------------------|---------------------|
-----7------------9--|--L----------------|------------------7--|
-----5------------7--|--L----------------|-----7------------5--|
---------------------|-------------------|-----5---------------|


  W                   E  H.           E     E  E  E  E  E  E  E  E   
-------------------|---------------------|--------------------------|
-------------------|---------------------|--------------------------|
-------------------|---------------------|--------------------------|
--L----------------|-----4------------6--|--L-----------------------|
--L----------------|-----2------------4--|--L--2--------2-----------|
-------------------|---------------------|--------5--4-----5--4--0--|


  E  H.           E     W                   E  H.           E   
---------------------|-------------------|---------------------|
---------------------|-------------------|---------------------|
---------------------|-------------------|---------------------|
---------------------|-------------------|-----7------------9--|
-----4------------5--|--L----------------|-----5------------7--|
-----2------------2--|--L----------------|---------------------|


  W                   E  H.           E     W                 
-------------------|---------------------|-------------------|
-------------------|---------------------|-------------------|
-------------------|---------------------|-------------------|
--L----------------|------------------7--|--L----------------|
--L----------------|-----7------------5--|--L----------------|
-------------------|-----5---------------|-------------------|


                                                 PM PM PM PM PM PM PM PM PM  
  E  H.           E     E  H.           E     E  E  S  E  S  E  E  S  E  S   
---------------------|---------------------|--------------------------------|
---------------------|---------------------|--------------------------------|
---------------------|---------------------|--------------------------------|
-----4------------6--|---------------------|--------------------------------|
-----2------------4--|------------------3--|--L--2--2--2--2--2--2--2--2--2--|
---------------------|------------------1--|--L--0--0--0--0--0--0--0--0--0--|


  PM                              PM PM PM PM PM PM PM PM PM  
  E  E  E  E  E    E  E  E     E  E  S  E  S  E  E  S  E  S   
----------------------------|--------------------------------|
----------------------------|--------------------------------|
----------------------------|--------------------------------|
----------------------------|--------------------------------|
--2-------------------------|-----2--2--2--2--2--2--2--2--2--|
--0--0--1--4--4br--L--1--0--|--L--0--0--0--0--0--0--0--0--0--|


                          PM PM PM PM         PM PM PM PM PM PM PM PM  
  S  S S S S S S  S S E.  S  S  S  S     Q    S  E  S  E  E  S  E  S   
--------------------------------------|-------------------------------|
--------------------------------------|-------------------------------|
--2p-1---1---1-2p-1---1---------------|-------------------------------|
-------3---3--------3-----------------|-------------------------------|
--------------------------------------|--2----2--2--2--2--2--2--2--2--|
--------------------------1--1--1--1--|--0----0--0--0--0--0--0--0--0--|


  PM                                                                           
  E  E  E  E  E    E  E   E      H.            E  E     Q     E  E  Q.     E   
-----------------------------|-----------------------|------------------------|
-----------------------------|-----------------------|------------------------|
-------------------------10--|---L------------12--9--|--L----12--8--L------9--|
-----------------------------|-----------------------|------------------------|
--2-----------------------8--|---L------------10--7--|--L----10--6--L------7--|
--0--0--1--4--4br--L--1------|-----------------------|------------------------|


      PM PM PM PM PM PM PM PM PM    PM                     PM  
  E   E  S  E  S  E  E  S  E  S     E  E  E  E  E    E  E  E   
---------------------------------|----------------------------|
---------------------------------|----------------------------|
--L\-----------------------------|----------------------------|
---------------------------------|----------------------------|
--L\--2--2--2--2--2--2--2--2--2--|--2----------------------2--|
------0--0--0--0--0--0--0--0--0--|--0--0--1--4--4br--L--1--0--|


  PM PM PM PM PM PM PM PM PM PM                            PM PM PM PM  
  E  E  S  E  S  E  E  S  E  S     S  S S S S S S  S S E.  S  S  S  S   
--------------------------------|--------------------------------------|
--------------------------------|--5p-4---4---4-5p-4---4---------------|
--------------------------------|-------5---5--------5-----------------|
--------------------------------|--------------------------------------|
--L--2--2--2--2--2--2--2--2--2--|--------------------------------------|
--L--0--0--0--0--0--0--0--0--0--|--------------------------1--1--1--1--|


       PM PM PM PM PM PM PM PM    PM                          
  Q    S  E  S  E  E  S  E  S     E  E  E  E  E    E  E   E   
-------------------------------|-----------------------------|
-------------------------------|-----------------------------|
-------------------------------|-------------------------14--|
-------------------------------|-----------------------------|
--2----2--2--2--2--2--2--2--2--|--2----------------------12--|
--0----0--0--0--0--0--0--0--0--|--0--0--1--4--4br--L--1------|


   H.            E   E      Q     E   E   Q.      E      H.            E   E   
------------------------|----------------------------|------------------------|
------------------------|----------------------------|------------------------|
---L------------16--13--|---L----16--12---L------14--|---L------------16--13--|
------------------------|----------------------------|------------------------|
---L------------14--11--|---L----14--10---L------12--|---L------------14--11--|
------------------------|----------------------------|------------------------|


   Q     E   E   Q.      E      H.            E   E   
----------------------------|------------------------|
----------------------------|------------------------|
---L----16--12---L------14--|---L------------16--13--|
----------------------------|------------------------|
---L----14--10---L------12--|---L------------14--11--|
----------------------------|------------------------|


   Q     E   E   Q.     E     E  E  E  E  E    E  E  E    
---------------------------|----------------------------||
---------------------------|----------------------------||
---L----16--12---L---------|----------------------------||
---------------------------|----------------------------||
---L----14--10---L---------|----------------------------||
---------------------------|-----0--1--4--4br--L--1--0--||




Duration Legend
---------------
W - whole
H - half
Q - quarter
E - 8th
S - 16th
T - 32nd
X - 64th
. - note dotted
|-n-|  - n-tuplets


Tablature Legend
----------------
L - tied note
x - dead note
g - grace note
(n) - ghost note
> - accentuded note
NH - natural harmonic
AH - artificial harmonic
TH - tapped harmonic
SH - semi harmonic
PH - pitch harmonic
h - hammer on
p - pull off
b - bend
br - bendRelease
pb - preBend
pbr - preBendRelease
brb - bendReleaseBend
\n/ - tremolo bar dip
\n - tremolo bar dive
-/n - tremolo bar Release up
/n\ - tremolo bar inverted dip
/n - tremolo bar return
-\n - tremolo bar Release down
S - shift slide
s - legato slide
/ -  slide into from below or out of upwards
\ -  slide into from above or out of downwards
~ - vibrato
W - wide vibrato
tr - trill
TP - tremolo picking
T - tapping
S - slap
P - pop
< - fade in
^ - brush up
v - brush down
Добавлено: 04.05.2012
Другие материалы по этой песне:

Страница создана 21.02.2012
http://primanota.ru/arch-enemy/skeleton-dance-chords.htm
Привет, Гость.
Предлагаем пройти революционный курс по гитаре.
Подарок от PrimaNota.Ru, забирай!