PrimaNota.ru - самый крупный в мире бесплатный архив песенных текстов, аккордов, табулатур и нот


Arch Enemy - Bury Me An Angel - аккорды и текст, таба, бас-таба, видео

Регистрация Запомнить меня
Войти через:  Facebook Google Twitter Vk Yandex Mail.ru

Arch Enemy - Bury Me An Angel - аккорды и текст, таба, бас-таба, видео

Печатать
Просмотров: 233
Уроки эстрадного вокала в Санкт-Петербурге
Авторы музыки: Michael Amott
Авторы текста: Michael Amott
Bury Me An Angel
Arch Enemy
[.]  - palm mute         [/]  - slide up to
[]   - slide down to             [~]  - vibrato
[h]  - hammer on         [b]  - bend
[p]  - pull off          Suffixes for bend
[ph] - pinch harmonic             [f] - full bend    [h] - half bend
[]  - see comment                [r] - release      [t] - tap bend
[X]  - percussion mute            [~] - vibrato bend
[@]  - slight palm mute           [()] - ghost note, sustained note
Tune Gtr to B
 
Riff A
-----------------------------------------------------------------
-----------------------------------------------------------------GTRS
-----------------------------------------------------------------1&2
-------------------------------------------------8h9-------------
-------------5h8----------5h8----------------5h8----7h8-5h7-7h8--
-00000000-5h7----00000000----5h7-00000000-5h7--------------------
  [........        ........        ........]
Riff B
-------------------------------------------------------------------------
-------------------------------------------------------------------------
-------------------------------------------------------------------------
-----9p6-----------------------------9p6---------------------6h8h9-------
-------------8p5-------------5h8-------------8p5-------5h7h8-------5h7h8-
-000-----000-----000-7p4-000-----000-----000-----5h7h8-------------------
  [...     ...     ...     ...     ...     ...]
Riff C
----------------------------------------------------------------------
----------------------------------------------------------------------GTR
-14-16-17-----14-16--13-14-16----------14-16-17-----14-16--13-14-16--- 1
----------15------------------14~~--------------15--------------------
----------------------------------------------------------------------
----------------------------------------------------------------------
                                           
                                           
-------12------------------------------------12-----------------------
-13-15--------13-15--12-13-12----------13-15--------13-15--12-13-15---GTR
----------14------------------14~~--------------14-------------------- 2
----------------------------------------------------------------------
----------------------------------------------------------------------
----------------------------------------------------------------------
                                           
                                           
----------------------------------------------------------------------
----------------------------------------------------------------------GTR
---------------------------------------------------------------------- 3
-2---------------------2---------------2------------------------------
-0------3-------2------0---------------0-------3---------2------5-----
--------1-------0------------------------------1---------0------3-----


------------
------------GTR
-16bh17-16~- 1
------------
------------
------------
            
------------
-15bf17-15~-GTR
------------ 2
------------
------------
------------
            
            
------------
------------GTR
------------ 3
------------
------------
-3~---------
RIFF D
----------------------------------------------------------------------
----------------------------------------13bf15~-----------------------GTR
-14-16-17-14~---14-16-17-14~---14-16-17---------14-17-16-14-16-14--14 1
-----------------------------------------------------------------17---
----------------------------------------------------------------------
----------------------------------------------------------------------
                                           
                                           
-------12-------------12-------------12-12bf14~-----------------------
-13-15----13~---13-15----13~---13-15------------13-13h17p13-12h13-13~GTR
---------------------------------------------------------------------- 2
----------------------------------------------------------------------
----------------------------------------------------------------------
----------------------------------------------------------------------
                                           
                                           
----------------------------------------------------------------------
----------------------------------------------------------------------GTR
---------------------------------------------------------------------- 3
--------7-------7---------6-------6---------5-------5---------4------4
----------------------------------------------------------------------
-5-555-----555-----4-444-----444-----3-333-----333-----2-222-----222--
   ...     ...       ...     ...       ...     ...       ...     ...


-----------------------
-----------------------GTR
----------------------- 1
-7"-6"-5"-4~-----------
-------------2---------
-------------0---------


-----------------------
-----------------------GTR
----------------------- 2
-7"-6"-5"-4~-----------
-------------2---------
-------------0---------

RIFF E  GTR 1(OUT)
----------------------------------------------------------------------
----------------------------------------------------------------------GTR
---------------------------------------------------------------------- 1
----------------------------------------------------------------------
----------------------------------------------------------------------
----------------------------------------------------------------------
                                           
                                           
----------------------------------------------------------------------
----------------------------------------------------------------------GTR
-------14/15-14--------------------------------14/15----------------- 2
-------11/12-11-------------7------------------11/12-----------------
-2-2---12/13-12---2---5--7--5--8--7--5---2-2---12/13-12---2---5--7--
-0-0---------------0---3--5-----6--5--3---0-0---------------0---3--5--
 . . .             .             . .


GTR 1 (IN)
----------------------------------------------------------------------
----------------------------------------------------------------------GTR
---------------------------------------------------------------------- 1
----------------------------------------------------------------------
----5---2-------------------------------------------(2)---------------
----3---0-------------------------------------------(0)---------------
                                           
                                           
----------------------------------------------------------------------
----------------------------------------------------------------------GTR
------------------------------------------------------------------p.h. 2
-7------------------11/12-----------------7-----------------11--------
-5--7----------2-2--12/13-12---2---5--7--5--8--7--5---2-2--12h13-12~
-------17-----0-0--------------0---3--5-----6--5--3---0-0------------
               . .                   . .


-------------12bh13--12bh13~------------------------------------------
----------------------------------------------------------------------GTR
---------------------------------------------------------------------- 1
------------------------------------11/12------------------7----------
----5--2-----------------------2-2--12/13-12~---2---5--7--5--8--7--5-
----3--0--0--------------------0-0---------------0---3--5-----6--5--3-
          .           . .                  
                                           
----------------------------------------------------------------------
-------------15bf17--15bf17~------------------------------------------GTR
---------------------------------------------------------------------- 1
-----------------------------------------------------------7----------
----5--2-----------------------2-2--12h13-12~---2---5--7--5--8--7--5-
-0--3--0--0--------------------0-0---------------0---3--5-----6--5--3-
 .        .           . .


----------------------------------------------------------------------
----------------------------------------------------------------------GTR
---------------------------------------------------------------------- 1
------11h12-11~------------7-9-9--------------------------------7----
-2-2--------------2---5--7--5-7-7----2-2--12h13-12~---2---5--7--5--8-
-0-0--------------0---3--5-----------0-0---------------0---3--5-----6-
 . .     . .                               
                                           
----------------------------------------------------------------------
----------------------------------------------------------------------GTR
---------------------------------------------------------------------- 2
------------------------------------------11/12------------------7----
-2-2--12h13-12~--2---5--7--5-7-7~---2-2--12/13-12~---2---5--7--5--8-
-0-0--------------0---3--5-----------0-0---------------0---3--5-----6-
 . .     . .


--------------------------------------------
--------------------------------------------GTR
-------------------------------------------- 1
-----------------------------------7--------
-7--5---2-2--12/13-12~--2---5--7--5--7-7~-
-5--3---0-0--------------0---3--5-----------
        . .                        
                          
--------------------------------------------
--------------------------------------------GTR
-------------------------------------------- 2
------------------------------------7--9-9--
-7--5---2-2---12/13-12~--2---5--7--5--7-7--
-5--3---0-0---------------0---3--5----------
         [. .]
Riff F
-----------------------------------------------------------------------
-----------------------------------------------------------------------GTR
----------------------------------------------------------------------- 1
-----------------------------------------------------------------------
-3---------------3--5--3--2---------------2----/7----------------------
-----------------------------------------------------------------------
                                            
                                            
-----------------------------------------------------------------------
-----------------------------------------------------------------------GTR
----------------------------------------------------------------------- 2
----------------------------------------------2------------------------
-3---------------3--5--3--2----------------2---------------------------
-----------------------------------------------------------------------


[]Keyboard arranged for Guitar
------------12-----------------------12-----------------------15------
13----13-------13----13--12----12-------12----12--17----17-------17---GTR
---12----12-------12--------11----11-------11--------16----16-------16 3
----------------------------------------------------------------------
----------------------------------------------------------------------
----------------------------------------------------------------------
                                           
                                           
----------------------------------------------------------------------
----------------------------------------------------------------------GTR
---------------------------------------------------------------------- 1
2---5--4-------------5--4--2------------------------------------2-----
--------------------------------------------5-------------------------
----------------------------------------------------------------------
                                           
                                           
----------------------------------------------------------------------
----------------------------------------------------------------------GTR
---------------------------------------------------------------------- 2
2---5-----------------------------------------------------------------
--------5-------------------3-------------------5--3--2---------------
-----------------------------------------------------------------3----
                                           
                                           
---------------14-----------------------12-----------------------12---
15-15----15-------15----15--13----13-------13----13--12----12-------12GTR
------14----14-------14--------12----12-------12--------11----11------ 3
----------------------------------------------------------------------
----------------------------------------------------------------------
----------------------------------------------------------------------
                                           
                                           
----------------------------------------------------------------------
----------------------------------------------------------------------GTR
---------------------------------------------------------------------- 1
/4h5--2~---------------------------------------------(2)--------------
----------------------------------------------------------------------
----------------------------------------------------------------------
                                           
                                           
----------------------------------------------------------------------
----------------------------------------------------------------------GTR
---------------------------------------------------------------------- 2
----------------------------------------------------------------------
-------2--------------------------------------------(2)---------------
-------0--------------------------------------------(0)---------------
                                           
                                           
-------------------15-----------------------15------------------------
---12--17----17-------17----17--17----17-------17----17---------------GTR
11--------16----16-------16--------16----16-------16------------------ 3
----------------------------------------------------------------------
----------------------------------------------------------------------
----------------------------------------------------------------------
Добавлено: 15.08.2013
Другие материалы по этой песне:

Страница создана 03.03.2012
http://primanota.ru/arch-enemy/bury-me-an-angel-chords.htm
Привет, Гость.
Предлагаем пройти революционный курс по гитаре.
Подарок от PrimaNota.Ru, забирай!