PrimaNota.ru - самый крупный в мире бесплатный архив песенных текстов, аккордов, табулатур и нот


Arcane Roots - You Keep Me Here - таба, видео

Регистрация Запомнить меня
Войти через:  Facebook Google Twitter Vk Yandex Mail.ru

Arcane Roots - You Keep Me Here - таба, видео

Печатать
Просмотров: 238
Новый альбом группы 'Черный Кузнец' по культовому сериалу 'Сверхъестественное'!
This is a video of Andrew Groves playing this:
https://www.youtube.com/watch?v=kfCTZO3ER-o&feature=youtu.be


Intro
E|-----------------------------------------------------------------------|
B|---6-6-6-6-6-6-6-6-6-6-6-6-6-6-6-6-6-6-6-6-6-6-6-6-6-6-6-6-6-6-6-6-6---|
G|---6-6-6-6-6-6-6-6-6-6-6-6-6-6-6-6-6-6-6-6-6-6-6-6-6-6-6-6-6-6-6-6-6---|
D|---x-x-x-x-x-x-x-x-x-x-x-x-x-x-x-x-x-x-x-x-x-x-x-x-x-x-x-x-x-x-x-x-x---|
A|---4-4-4-4-4-4-4-4-4-4-4-4-4-4-4-4-4-4-4-4-4-4-4-4-4-4-4-4-4-4-4-4-4---|
E|---6-6-6-6-6-6-6-6-6-6-6-6-6-6-6-6-6-6-6-6-6-6-6-6-6-6-6-6-6-6-6-6-6---|

First Verse
E|-----------|----------------------------------------------------------|
B|-----------|----------------------------------------------------------|
G|-first bit-|----------------------------------------------------------|
D|-just bass-|----------------------------------------------------------|
A|-----------|----------------------------------------------------------|
E|-----------|---9--9--9--9--9--9--9--9-0-8--8--8--8--8/11-11--11--11\--|

E|-------------------------------------------------------|
B|-------------------------------------------------------|
G|-------------------------------------------------------|
D|-------------------------------------------------------|
A|-------------------------------------------------------|
E|---6--6--6--6--6--6--6--6-0-6-0-6--6--6--6--6--6--6-0--|

E|-----------------------------------------------------------|
B|-----------------------------------------------------------|
G|-----------------------------------------------------------|
D|-----------------------------------------------------------|
A|-----------------------------------------------------------|
E|---9--9--9--9--9--9--9--9-0-8--8--8--8--8/11-11--11--11-0--|

E|----------------------------------------------------------------------|
B|----------------------------------------------------------------------|
G|----------------------------------------------------------------------|
D|----------------------------------------------------------------------|
A|--13--13--13--13--13--13--13--13---13---13--13--13--13--13--13--13----|
E|--10--10--10--10--10--10--10--10-0-10-0-10--10--10--10--10--10--10-0--|

E|----------------------------------------------------------------------|
B|----------------------------------------------------------------------|
G|----------------------------------------------------------------------|
D|----------------------------------------------------------------------|
A|--13--13--13--13--13--13--13--13---13--13--13--13--13-----13--13--13--|
E|--9---9---9---9---9---9---9---9--0-8---8---8---8---8-/11--11--11--11--|

Chorus (listen to track for timing)
E|------------------------------------------------------------|
B|------------------------------------------------------------|
G|---7-----------10--------------5-----------8----------------|x2
D|---x-----------x---------------x-----------x----------------|
A|---5-----------8---------------3-----------6----------------|
E|---6-----------9---------------4-----------7----------------|

E|-------------------------------------|
B|-------------------------------------|
G|-------------------------------------|x2
D|---------------------8-8-8-8-8-8-8---|
A|---------------------7-7-7-7-7-7-7---|
E|---6-6-6-9-9-6-6-9-9-0-0-0-0-0-0-0---|

Pre-Verse
E|------------------------------------------------------|
B|------------------------------------------------------|
G|------------------------------------------------------|
D|------------------------------------------------------|
A|------------------------------------------------------|
E|--6--6--6--6--6--6--6--6-0-6-0-6--6--6--6--6--6--6-0--|

Second Verse
E|----------------------------------------------------|
B|----------------------------------------------------|
G|----------------------------------------------------|
D|----------------------------------------------------|
A|----------------------------------------------------|
E|--6--6--6--6--6--6--6--6-0-6-0-6--6--6--6--6--6--6--|

E|----------------------------------------------------------|
B|----------------------------------------------------------|
G|----------------------------------------------------------|
D|----------------------------------------------------------|
A|----------------------------------------------------------|
E|--9--9--9--9--9--9--9--9-0-8--8--8--8--8/11-11--11--11-0--|

E|----------------------------------------------------------------------|
B|----------------------------------------------------------------------|
G|----------------------------------------------------------------------|
D|----------------------------------------------------------------------|
A|--13--13--13--13--13--13--13--13---13---13--13--13--13--13--13--13----|
E|--10--10--10--10--10--10--10--10-0-10-0-10--10--10--10--10--10--10-0--|

E|----------------------------------------------------------------------------|
B|----------------------------------------------------------------------------|
G|----------------------------------------------------------------------------|
D|----------------------------------------------------------------------------|
A|--13--13--13--13--13--13--13--13---13--13--13--13--13-----13-13-13-13-13-13-|
E|--9---9---9---9---9---9---9---9--0-8---8---8---8---8-/11--11-11-11-11-11-11-|

Chorus (listen to track for timing)
E|------------------------------------------------------------|
B|------------------------------------------------------------|
G|---7-----------10--------------5-----------8----------------|x2
D|---x-----------x---------------x-----------x----------------|
A|---5-----------8---------------3-----------6----------------|
E|---6-----------9---------------4-----------7----------------|

E|-------------------------------------|    |---------------------------------|
B|-------------------------------------|    |---------------------------------|
G|-------------------------------------|x3  |---------------------------------|
D|---------------------8-8-8-8-8-8-8---|    |---------------------------------|
A|---------------------7-7-7-7-7-7-7---|    |-------------------6h8--6--------|
E|---6-6-6-9-9-6-6-9-9-0-0-0-0-0-0-0---|    |---6-6-6-9-9-6-6-6---------9--8--|

(Driving)
E|-------------------------------------------------|
B|--6-----------6----------6----6------------------|
G|--6-----------5----------5----6------3-----5-----|x2
D|--x-----------x----------x----x------x-----x-----|
A|--x-----------x----------4----4------x-----x-----|
E|--6-----------5----------------------2-----4-----|

E|--------------------------------------------------------------------------|
B|-----------------------------------------6-6-6-6-6-6-6-6------------------|
G|--6-6-6-6-6-----8-----5-5-5-5-5-----6----6-6-6-6-6-6-6-6-3-3-3-3--x-5--5--|x2
D|--x-x-x-x-x---x-x-----x-x-x-x-x---x-x----x-x-x-x-x-x-x-x-x-x-x-x--x-x--x--|
A|--x-x-x-x-x---x-x-----x-x-x-x-x---x-x----4-4-4-4-4-4-4-4-x-x-x-x--x-x--x--|
E|--6-6-6-6-6---x-8-----5-5-5-5-5---x-6--------------------2-2-2-2--x-4--4--|

Third Verse
E|------------------------------------------------------------------------------------------------------|
B|--6--6--6--6--6--6--6--6---6--6--6--6--6--6--6--6---4--4--4--4--4--4--4--4--4--4--4--4----------------|
G|--6--6--6--6--6--6--6--6---5--5--5--5--5--5--5--5---5--5--5--5--5--5--5--5--3--3--3--3----------------|
D|--x--x--x--x--x--x--x--x---x--x--x--x--x--x--x--x---6--6--6--6--6--6--6--6--5--5--5--5----------------|
A|--x--x--x--x--x--x--x--x---x--x--x--x--x--x--x--x---6--6--6--6--6--6--6--6--6--6--6--6--6h8--6--------|
E|--6--6--6--6--6--6--6--6-0-5--5--5--5--5--5--5--5-0-4--4--4--4--4--4--4--4----------------------9--8--|

(Driving)
E|-----------------------------------------------------------|
B|--6-----------6----------4----------4----------------------|
G|--6-----------5----------5----------3----------------------|
D|--x-----------x----------6----------5----------------------|
A|--x-----------x----------6----------6--------6h8--6--------|
E|--6-----------5----------4---------------------------9--8--|

E|-----------------------------------------------------------------------|
B|--6-----------6----------4----------4----------------------------------|
G|--6-----------5----------5----------3----------------------------------|
D|--x-----------x----------6----------5----------------------------------|
A|--x-----------x----------6----------6--------6h8--6--------6-----------|
E|--6-----------5----------4---------------------------9--8-----9--8--5--|

E|-------------------------------------------------|
B|--6-----------6----------6----6------------------|
G|--6-----------5----------5----6------3-----5-----|x2
D|--x-----------x----------x----x------x-----x-----|
A|--x-----------x----------4----4------x-----x-----|
E|--6-----------5----------------------2-----4-----|

E|--------------------------------------------------------------------------|
B|-----------------------------------------6-6-6-6-6-6-6-6------------------|
G|--6-6-6-6-6-----8-----5-5-5-5-5-----6----6-6-6-6-6-6-6-6-3-3-3-3--x-5--5--|x2
D|--x-x-x-x-x---x-x-----x-x-x-x-x---x-x----x-x-x-x-x-x-x-x-x-x-x-x--x-x--x--|
A|--x-x-x-x-x---x-x-----x-x-x-x-x---x-x----4-4-4-4-4-4-4-4-x-x-x-x--x-x--x--|
E|--6-6-6-6-6---x-8-----5-5-5-5-5---x-6--------------------2-2-2-2--x-4--4--|

E|-----------------------------------------------------------------|    |-----------|
B|-1-1-1-1-1-1-1-1-1-1-1-1-1-1-1-1-2-2-2-2-2-2-2-2-2/4-4-4-4-4-4-4-|    |--1--------|
G|-2-2-2-2-2-2-2-2-2-2-2-2-2-2-2-2-3-3-3-3-3-3-3-3-3/5-5-5-5-5-5-5-|x2  |--2--------|
D|-x-x-x-x-x-x-x-x-x-x-x-x-x-x-x-x-x-x-x-x-x-x-x-x-x-x-x-x-x-x-x-x-|    |--x--------|
A|-x-x-x-x-x-x-x-x-x-x-x-x-x-x-x-x-x-x-x-x-x-x-x-x-x-x-x-x-x-x-x-x-|    |--x--------|
E|-1-1-1-1-1-1-1-1-1-1-1-1-1-1-1-1-2-2-2-2-2-2-2-2-2/4-4-4-4-4-4-4-|    |--1--------|

Middle Section (clean)
E|-------------------------------------------------------------------------------|
B|--------8-----------------8----------------------------------------------------|
G|----------10----------------10-------------10------------------10--------------|x4
D|-----10----------------10---------------------10------------------10-----------|
A|---8-----------------8-------------------8-------------------8-----------------|
E|--------------------------------------10------------------10-------------------|

E|------------8-------------------8------------------------------------------------|
B|-------8------8----8-------8-----(8)---------------------------------------------|
G|---------10-----10-----------10---9--9--9h10-------10----------------10----------|x6
D|----10------------------10----------------------------10----------------10-------|
A|--8-------------------8-------------------------8-----------------8--------------|
E|---------------------------------------------10----------------10----------------|

(palm muted building)
E|-------------------------------------------------------------------------------------------------|
B|-8--8--8--8--8--8--8--8--8--8--8--8--8--8--8--8--------------------------------------------------|
G|-10-10-10-10-10-10-10-10-10-10-10-10-10-9--9--9--10-10-10-10-10-10-10-10-10-10-10-10-10-10-10-10-|x2
D|-10-10-10-10-10-10-10-10-10-10-10-10-10-10-10-10-10-10-10-10-10-10-10-10-10-10-10-10-10-10-10-10-|
A|-8--8--8--8--8--8--8--8--8--8--8--8--8--8--8--8--8--8--8--8--8--8--8--8--8--8--8--8--8--8--8--8--|
E|-------------------------------------------------10-10-10-10-10-10-10-10-10-10-10-10-10-10-10-10-|

Outro (Distorted) - Repeat as necessary 
E|-(8)----------------------------------------------------------------------------------------------------|
B|-(8)-------------------------------------------------------------------------------------------6--6--6--|
G|--10-10-10-10-10-10-10-10-10-10-10-10-10-9---9---9-h10--10-10-10-10-10-10-10-10-10-10-10-10-10-7--7--7--|
D|--10-10-10-10-10-10-10-10-10-10-10-10-10-10--10--10-----10-10-10-10-10-10-10-10-10-10-10-10-10-x--x--x--|
A|--8--8--8--8--8--8--8--8--8--8--8--8--8--7---7---7------8--8--8--8--8--8--8--8--8--8--8--8--8--5--5--5--|
E|--------------------------------------------------------10-10-10-10-10-10-10-10-10-10-10-10-10-6--6--6--|


At the end there are lots of layered parts that continue for a while but due to layering not really sure 
which guitar part does what.


And that's it. Hopefully that all makes sense. 




Добавлено: 25.05.2014
Другие материалы по этой песне:

Страница создана 25.05.2014
http://primanota.ru/arcane-roots/you-keep-me-here-chords.htm
Привет, Гость.
Предлагаем пройти революционный курс по гитаре.
Подарок от PrimaNota.Ru, забирай!