PrimaNota.ru - самый крупный в мире бесплатный архив песенных текстов, аккордов, табулатур и нот


Arcane Roots - Belief - таба, бас-таба, видео

Регистрация Запомнить меня
Войти через:  Facebook Google Twitter Vk Yandex Mail.ru

Arcane Roots - Belief - таба, бас-таба, видео

Печатать
Просмотров: 287
Новый альбом группы 'Черный Кузнец' по культовому сериалу 'Сверхъестественное'!
Intro
E|--------------------------------------------------------------------------|
B|--------12p9----------12p9--------------------12p9----------12p9----------|
G|-------------9-------------9-----------------------9-------------9--------|
D|11p9h11-------11p9h11-------11p9h11p9-11p9h11-------11p9h11-------11p9h-9-|
A|--------------------------------------------------------------------------|
E|--------------------------------------------------------------------------|

Verse
E|--------------------------------------------------------------------|
B|--------------------------------------------------------------------|
G|--------------------------------------------------------------------|
D|--------------------------------------------------------------------|
A|--9h11---11--11-9h11--11--------9h11---11--11-9h11--11----14--14----|
E|--0-----------------------------0-----------------------------------|

E|--------------------------------------------------------------------------|
B|--------12p9----------12p9--------------------12p9----------12p9----------|
G|-------------9-------------9-----------------------9-------------9--------|
D|11p9h11-------11p9h11-------11p9h11p9-11p9h11-------11p9h11-------11p9h-9-|
A|--------------------------------------------------------------------------|
E|--------------------------------------------------------------------------|

|---------------------------------------------------------------|
B|--------------------------------------------------------------|
G|--------------------------------------------------------------|
D|--------------------------------------------------------------|
A|--9h11---11--11-9h11--11--------19--19\18--18\16----14-14-----|
E|--0-----------------------------0-----------------------------|

E|--------------------------------------------------------------------------|
B|--------12p9----------12p9--------------------12p9----------12p9----------|
G|-------------9-------------9-----------------------9-------------9--------|
D|11p9h11-------11p9h11-------11p9h11p9-11p9h11-------11p9h11-------11p9h-9-|
A|--------------------------------------------------------------------------|
E|--------------------------------------------------------------------------|

E|-----------------------------------------------------------------|
B|--------9---------------7-----------5-----------5----------------|
G|-----------9---------------8----------4h6---------4h6--4---------|
D|-----------------------------------------------------------6-4---|
A|-----7---------------6------------4---------(4)------------------|
E|--9---------------7---------------5----------5-------------------|

Pre Chorus (listen for strumming pattern)
E|-------------------------------------------------------------------------|
B|---9-------9-------9-------7-------9-------11------10------7-----x-x-x-x-|
G|---9-------9-------9-------8-------9-------9-------9-------8-----x-x-x-x-|
D|---9-------x-------x-------9-------9-------x------(7)------9-----x-x-x-x-|
A|---7-------9-------7-------x-------7-------9------(7)------x-----x-x-x-x-|
E|---0---------------9-------7-------0---------------9-------7-------------|

Chorus(listen for strumming pattern)
E|--------------------------------------------------------|
B|---5-----------5------7--------5----------5-------------|
G|---4-----------4------8--------4----------4------6------|
D|---2-----------2------x--------2----------2------x------|
A|---2-----------2------6--------2----------2------4------|
E|---0-----------4------7--------0----------4------5------|

E|--------------------------------------------------------|
B|--------------------------------------------------------|
G|---9-----------13-----8--------9----------11------------|
D|---x-----------x------x--------x----------x-------------|
A|---7-----------11-----6--------7----------9-------------|
E|---9-----------12-----7--------9----------11------------|

Pre Verse
E|------------------------------------------------------------------|
B|---------------------------------------5-------------7------------|
G|--------------------13----13----13-----4-------------8------------|
D|--------------------x-----x-----x-----(2)------------x------------|
A|--9-11-11-9-11-11---11----11----11-----2-------------6------------|
E|--------------------0-----0-----0------4-------------7------------|

E|------------------------------------------------------------------|
B|---------------------------------------5-------------7------------|
G|--------------------13----13----13-----4-------------8------------|
D|--------------------x-----x-----x-----(2)------------x------------|
A|--9-11-11-11-14-14--11----11----11-----2-------------6------------|
E|--------------------0-----0-----0------4-------------7------------|

E|--------------------------------------------------------------------------|
B|-------12p9----------12p9--------------------12p9----------12p9--10p9-----|
G|------------9-------------9-----------------------9------------9-----11p9-|
D|11p9h11-------11p9h11-------11p9h11p9-11p9h11-------11p9h11---------------|
A|--------------------------------------------------------------------------|
E|--------------------------------------------------------------------------|

Second Verse
E|----------------------------------------|
B|----------------------------------------|
G|----------------------------------------|
D|-------9--------9---------9--------9----|x2
A|-7-7-7-7--7-7-7-7---7-7-7-7--7-7-7-7----|
E|-9-9-9-9--9-9-9-9---9-9-9-9--9-9-9-9----|
pm------    -----     -----    -----------|

E|-----------------------------------------|
B|-----------------------------------------|
G|-----------------------------------------|
D|-------8--------8---------8--------8-----|
A|-7-7-7-7--7-7-7-7---7-7-7-7--7-7-7-7-----|
E|-9-9-9-9--9-9-9-9---9-9-9-9--9-9-9-9-----|
pm------    -----     -----    ------------|

E|-----------------------------------------|
B|-----------------------------------------|
G|-----------------------------9-9-8-8-6---|
D|-------7--------7---------7--x-x-x-x-x---|
A|-7-7-7-7--7-7-7-7---7-7-7-7--7-7-6-6-4---|
E|-9-9-9-9--9-9-9-9---9-9-9-9--------------|
pm------    -----     ---------------------|

E|----------------------------------------------------|
B|--5------------------------5----------9------7------|
G|--6----------9------8------6----------9------8------|
D|--x----------x------x------x----------9------9------|
A|--4----------7------6------4----------7------x------|
E|--5----------9------7------5----------0------7------|

Play Pre Chorus & Chorus

Break
E|----------------------------------------------------------------------|
B|-------5--------------4---------2--------5-------------12--------7----|
G|---------6--------------4-----3---3--------6-------------13--------8--|
D|----------------------------------------------------------------------|
A|-----4--------------2------------------4-------------11--------6------|
E|---5--------------4---------2--------5-------------12--------7--------|

E|----------------------------------------------------------------------|
B|-------5------------------------2--------5-5-5-5-5-5-7-7-7-7-7-7-7-7--|
G|---------6------------4-------3---3--------6-6-6-6-6-8-8-8-8-8-8-8-8--|
D|--------------------2---2------------------x-x-x-x-x-x-x-x-x-x-x-x-x--|
A|-----4--------------------------------4----4-4-4-4-4-6-6-6-6-6-6-6-6--|
E|---5--------------0---------2--------5---------5-5-5-7-7-7-7-7-7-7-7--|

Play Double Chorus

This is the lead part over the double chorus section. (Variations of it appear earlier 
in the song but its pretty prominent at this part so thought I'd add it). To save space 
harmony is on the same stave.
E|-------------------------------------------------|
B|-17-17-17-16-16-16-------------------------------|
G|-------------------16-16-16-13-13-13-13-13-13-13-|x3
D|-------------------------------------------------|
A|-------------------------------------------------|
E|-------------------------------------------------|

E|-------------------------------------------------|
B|-17-17-17-16-16-16-17-17-17-19-19-19-19-19-19-19-|
G|-------------------------------------------------|
D|-------------------------------------------------|
A|-------------------------------------------------|
E|-------------------------------------------------|

E|-16-16-16-14-14-14-------------------------------|
B|-------------------17-17-17-14-14-14-14-14-14-14-|
G|-------------------------------------------------|
D|-14-14-14-13-13-13-------------------------------|
A|-------------------14-14-14-11-11-11-11-11-11-11-|
E|-------------------------------------------------|

E|-16-16-16-14-14-14----------17-17-17-17-17-17-17-|
B|-------------------16-16-16----------------------|
G|-------------------------------------------------|
D|-14-14-14-13-13-13-------------------------------|
A|-------------------14-14-14-11-11-11-11-11-11-11-|
E|-------------------------------------------------|

E|-16-16-16-14-14-14-------------------------------|
B|-------------------17-17-17-14-14-14-14-14-14-14-|
G|-------------------------------------------------|
D|-14-14-14-13-13-13-------------------------------|
A|-------------------14-14-14-11-11-11-11-11-11-11-|
E|-------------------------------------------------|

E|--------------------------------------------------------|
B|-16-16-16-16-16-16-16-16-16-16b-16b-16b-16b-16b-16b-16b-|
G|--------------------------------------------------------|
D|--------------------------------------------------------|
A|-14-14-14-14-14-14-14-14-14-14b-14b-14b-14b-14b-14b-14b-|
E|--------------------------------------------------------|


Outro
E|--------------------|
B|--------------------|
G|--------------------|x4
D|--------------------|
A|--------------------|
E|--9-0-9-0--9-0-9-0--|

E|--------------------|    |--------------------|
B|--------------------|    |--------------------|
G|--------------------|x4  |--------------------|x4
D|--9-9-9-9--9-9-9-9--|    |--8-8-8-8--8-8-8-8--|
A|--------------------|    |--------------------|
E|--9-0-9-0--9-0-9-0--|    |--9-0-9-0--9-0-9-0--|

E|--------------------------------------------------------------------------|
B|--------------------------------------------------------------------------|
G|--------------------------------------------------------------------------|
D|-7-7-7-7--7-7-7-7--7-7-7-7--7-7-7-7--7-7-7-7--7-7-7-7--7-7-7-7--7-7/9-9-9-|
A|--------------------------------------------------------------------------|
E|-9-0-9-0--9-0-9-0--9-0-9-0--9-0-9-0--9-0-9-0--9-0-9-0--9-0-9-0--9-9-9-9-9-|

Drving
E|---------------------------------------------------------------|
B|---------------------------(8)---------------------------------|
G|---------------------------------------------------------------|
D|----8-----------------------7------------------------7-9-9-9-9-|
A|---------------------------------------------------------------|
E|----9-----------------------9------------------------9-9-9-9-9-|

E|--------------------|
B|--------------------|
G|--------------------|x8
D|--8-8-8-8--8-8-8-8--|
A|--------------------|
E|--9-0-9-0--9-0-9-0--|


And that's it. Hopefully that all makes sense.
Добавлено: 07.05.2014
Другие материалы по этой песне:

Страница создана 07.05.2014
http://primanota.ru/arcane-roots/belief-chords.htm
Привет, Гость.
Предлагаем пройти революционный курс по гитаре.
Подарок от PrimaNota.Ru, забирай!