PrimaNota.ru - самый крупный в мире бесплатный архив песенных текстов, аккордов, табулатур и нот


Arcane Awakening - Spaceballs - таба, видео

Регистрация Запомнить меня
Войти через:  Facebook Google Twitter Vk Yandex Mail.ru

Arcane Awakening - Spaceballs - таба, видео

Печатать
Просмотров: 65
-------------------------------------------------------------------------------
                             SONG NAME - Band Name
-------------------------------------------------------------------------------
Tabbed by:
E-mail:

Tuning: A, E, A, D, F#, B

e|---------------------------------------------------------------------------|
B|---------------------------------------------------------------------------|
G|---------------------------------------------------------------------------|
D|---------------------------------------------------------------------------|----|
A|-0---7---10---7---8---7---7-8-7-0---7---10---7---8---7---7-8-7-0---7---10--|    |
E|-0-0---0----0---0---0---0-------0-0---0----0---0---0---0-------0-0---0----0|    |
                                                                                  |
e|---------------------------------------------------------------------------|   X 2
B|---------------------------------------------------------------------------|    |
G|---------------------------------------------------------------------------|    |
D|---------------------------------------------------------------------------|----|
A|7---8---7---7-8-7-8-------------5------------------------------------------|
E|--0---0---0-------8-8-888-888-8-5-5-555-555-5------------------------------|

e|---------------------------------------------------------------------------|
B|---------------------------------------------------------------------------|
G|---------------------------------------------------------------------------|
D|---------------------------------------------------------------------------|  
A|-0-------------------------0-------------------------0---------------------|   
E|-0-0-000-0-000-0-000-000-0-0-0-000-0-000-0-000-000-0-0-0-000-0-000-0-000---|

e|---------------------------------------------------------------------------|
B|---------------------------------------------------------------------------|
G|---------------------------------------------------------------------------|
D|---------------------------------------------------------------------------|
A|-------0-------------------0-0-0-0-----------------------------------------|
E|-000-0-0-0-000-0-000-0-000-0-0-0-0-----------------------------------------|

e|---------------------------------------------------------------------------|
B|---------------------------------------------------------------------------|
G|---------------------------------------------------------------------------|
D|---------------------------------------------------------------------------|
A|-0---0-0-0---0-0-0-0-0---0-0-0-0-1--1--1--0---0-0-0--0-0-0-0-0---0-0-0-0---|
E|-0---0-0-0---0-0-0-0-0---0-0-0-0-1--1--1--0---0-0-0--0-0-0-0-0---0-0-0-0---|

e|---------------------------------------------------------------------------|
B|---------------------------------------------------------------------------|
G|---------------------------------------------------------------------------|
D|---------------------------------------------------------------------------|
A|-1--1--1--0--0-0-0--0-0-0-0-0--0-0-0-0-1--1--1--0---0-0-0---0-0-0-0-0------|
E|-1--1--1--0--0-0-0--0-0-0-0-0--0-0-0-0-1--1--1--0---0-0-0---0-0-0-0-0------|

e|---------------------------------------------------------------------------|
B|---------------------------------------------------------------------------|
G|---------------------------------------------------------------------------|
D|---------------------------------------------------------------------------|
A|-0-0-0-0-1--1--1-1---1-1-1---1-1-1-1-1---1-1-1-1--1--1--1--1---1-1-1--1-1-1|
E|-0-0-0-0-1--1--1-1---1-1-1---1-1-1-1-1---1-1-1-1--1--1--1--1---1-1-1--1-1-1|

e|---------------------------------------------------------------------------|
B|---------------------------------------------------------------------------|
G|---------------------------------------------------------------------------|
D|---------------------------------------------------------------------------|
A|-1-1---1-1-1-1-1--1--1--0---0-0-0---0-0-0-0-0---0-0-0-0-1--1--1--0---------|
E|-1-1---1-1-1-1-1--1--1--0---0-0-0---0-0-0-0-0---0-0-0-0-1--1--1--0---------|

e|---------------------------------------------------------------------------|
B|---------------------------------------------------------------------------|
G|---------------------------------------------------------------------------|
D|---------------------------------------------------------------------------|
A|-------5---6---4---5-----------------------5---6---4---5-------------------|----|
E|--0-0-0-0-0-0-0-0-0-0-0-0-0-0-0-0-0-0-0-0-0-0-0-0-0-0-0-5-5-5-5-5-5-5-8-5--|    |
                                                                                  |
e|---------------------------------------------------------------------------|    | Xs2 
B|---------------------------------------------------------------------------|    |
G|---------------------------------------------------------------------------|    |
D|---------------------------------------------------------------------------|----|
A|------5---6---4---5-----------------------5---6---4---5--------------------|
E|-0-0-0-0-0-0-0-0-0-0-0-0-0-0-0-0-0-0-0-0-0-0-0-0-0-0-0-5-5-5-5-8-5-4-7-4---|


e|---------------------------------------------------------------------------|
B|---------------------------------------------------------------------------|
G|---------------------------------------------------------------------------|
D|---------------------------------------------------------------------------|----|
-|------------------------5-5-5-6-6-6-4-4-4-5-5-5----------------------------|    |
E|-0-0-0-0-0-0-0-0-0-0-0-0------------------------0---0-0-0-0-0---0-0-0-0----|    |
                                                                                  Xs 2

e|---------------------------------------------------------------------------|    |
B|---------------------------------------------------------------------------|    | 
G|---------------------------------------------------------------------------|----|
D|---------------------------------------------------------------------------|
A|---------5-5-5-6-6-6-4-4-4-5-5-5-------------------------------------------|
E|-0-0-0-0-------------------------------------------------------------------|


3RD AND 4TH TIME LIKE THIS (3rd doesn't change)
e|---------------------------------------------------------------------------|
B|---------------------------------------------------------------------------|
G|---------------------------------------------------------------------------|
D|---------------------------------------------------------------------------|
A|-------------------------5-5-5-6-6-6-4-4-4-5-5-5---------------------------|
E|-0-0-0-0-0-0-0-0-0-0-0-0-------------------------0---0-0-0-0-0---0-0-0-0---|


e|---------------------------------------------------------------------------|
B|---------------------------------------------------------------------------|
G|---------------------------------------------------------------------------|
D|---------------------------------------------------------------------------|
A|-5-5-5-6-6-6-4-4-4-5-5-5-------------------------5-5-5-6-6-6-4-4-4-5-5-5---|
E|-------------------------0-0-0-0-0-0-0-0-0-0-0-0---------------------------|

e|---------------------------------------------------------------------------|
B|---------------------------------------------------------------------------|
G|---------------------------------------------------------------------------|
D|---------------------------------------------------------------------------|
A|-0--0--0--0--0--0---5-5-5-6-6-6-4-4-4-5-5-5~~------------------------------|
E|-0--0--0--0--0--0----------------------------------------------------------|
                                            +

e|---------------------------------------------------------------------------|
B|---------------------------------------------------------------------------|
G|---------------------------------------------------------------------------|
D|---------------------------------------------------------------------------|  Xs 2
A|-------5-----7-----10-----8-----7-----8------------------------------------|
E|-0-0-0---0-0---0-0----0-0---0-0---0-0---0-1h3p1----------------------------|


e|---------------------------------------------------------------------------|
B|---------------------------------------------------------------------------|
G|---------------------------------------------------------------------------|
D|-------------------7-----5-----------5----------------------------7-----5--|
A|-------5-----7-----------------5----------------------5-----7--------------|
E|-8-8-8---7-7---5-5---5-5---5-5---5-5---5-5h8p5--8-8-8---7-7---5-5---5-5----|

e|---------------------------------------------------------------------------|
B|---------------------------------------------------------------------------|
G|---------------------------------------------------------------------------|
D|---------------------------------------------------------------------------|
A|-----5---------------------------------------------------------------------|
E|-5-5---0-1h3p1-------------------------------------------------------------|

e|---------------------------------------------------------------------------|
B|---------------------------------------------------------------------------|
G|---------------------------------------------------------------------------|
D|---------------------------------------------------------------------------|  Xs 4
A|-------5-----7-----10-----8-----7-----8------------------------------------|
E|-0-0-0---0-0---0-0----0-0---0-0---0-0---0-1h3p1----------------------------|


e|---------------------------------------------------------------------------|
B|---------------------------------------------------------------------------|
G|---------------------------------------------------------------------------|
D|-------------------7-----5-----------5----------------------------7-----5--|
A|-------5-----7-----------------5----------------------5-----7--------------|
E|-8-8-8---7-7---5-5---5-5---5-5---5-5---5-5h8p5--8-8-8---7-7---5-5---5-5----|

e|---------------------------------------------------------------------------|
B|---------------------------------------------------------------------------|
G|---------------------------------------------------------------------------|
D|---------------------------------------------------------------------------|
A|-----5~~-------------------------------------------------------------------|
E|-5-5-----------------------------------------------------------------------|

e|---------------------------------------------------------------------------|
B|---------------------------------------------------------------------------|
G|---------------------------------------------------------------------------|
D|---------------------------------------------------------------------------|----|
A|-0---7---10---7---8---7---7-8-7-0---7---10---7---8---7---7-8-7-0---7---10--|    |
E|-0-0---0----0---0---0---0-------0-0---0----0---0---0---0-------0-0---0----0|    |
                                                                                  |
e|---------------------------------------------------------------------------|   X 2
B|---------------------------------------------------------------------------|    |
G|---------------------------------------------------------------------------|    |
D|---------------------------------------------------------------------------|----|
A|7---8---7---7-8-7-8-------------5------------------------------------------|
E|--0---0---0-------8-8-888-888-8-5-5-555-555-5------------------------------|

e|---------------------------------------------------------------------------|
B|---------------------------------------------------------------------------|
G|---------------------------------------------------------------------------|
D|---------------------------------------------------------------------------|  
A|-0-------------------------0-------------------------0---------------------|   
E|-0-0-000-0-000-0-000-000-0-0-0-000-0-000-0-000-000-0-0-0-000-0-000-0-000---|

e|---------------------------------------------------------------------------|
B|---------------------------------------------------------------------------|
G|---------------------------------------------------------------------------|
D|---------------------------------------------------------------------------|
A|-------0-------------------0-0-0-0-----------------------------------------|
E|-000-0-0-0-000-0-000-0-000-0-0-0-0-----------------------------------------|



e|---------------------------------------------------------------------------|
B|---------------------------------------------------------------------------|
G|---------------------------------------------------------------------------|
D|---------------------------------------------------------------------------|  Xs 4
A|-000--000--000--000--000--111133331111-------------------------------------|
E|-000--000--000--000--000--111133331111-------------------------------------|


e|---------------------------------------------------------------------------|
B|---------------------------------------------------------------------------|
G|---------------------------------------------------------------------------|
D|---------------------------------------------------------------------------|
A|-0---0-0-0---0-0-0-0-0---0-0-0-0-1--1--1--0---0-0-0--0-0-0-0-0---0-0-0-0---|
E|-0---0-0-0---0-0-0-0-0---0-0-0-0-1--1--1--0---0-0-0--0-0-0-0-0---0-0-0-0---|

e|---------------------------------------------------------------------------|
B|---------------------------------------------------------------------------|
G|---------------------------------------------------------------------------|
D|---------------------------------------------------------------------------|
A|-1--1--1--0--0-0-0--0-0-0-0-0--0-0-0-0-1--1--1--0---0-0-0---0-0-0-0-0------|
E|-1--1--1--0--0-0-0--0-0-0-0-0--0-0-0-0-1--1--1--0---0-0-0---0-0-0-0-0------|

e|---------------------------------------------------------------------------|
B|---------------------------------------------------------------------------|
G|---------------------------------------------------------------------------|
D|---------------------------------------------------------------------------|
A|-0-0-0-0-1--1--1-0---------------------------------------------------------|
E|-0-0-0-0-1--1--1-0---------------------------------------------------------|


e|---------------------------------------------------------------------------|
B|---------------------------------------------------------------------------|
G|---------------------------------------------------------------------------|
D|---------------------------------------------------------------------------|
A|------5---6---4---5-----------------------5---6---4---5--------------------|----|
E|-0-0-0-0-0-0-0-0-0-0-0-0-0-0-0-0-0-0-0-0-0-0-0-0-0-0-0-5-5-5-5-5-5-5-8-5---|    | 

e|---------------------------------------------------------------------------|    |  X2
B|---------------------------------------------------------------------------|    | 
G|---------------------------------------------------------------------------|----|
D|---------------------------------------------------------------------------|
A|------5---6---4---5-----------------------555666444555---------------------|
E|-0-0-0-0-0-0-0-0-0-0-0-0-0-0-0-0-0-0-0-0-0-------------5-5-5-5-8-5-4-7-4---|

e|---------------------------------------------------------------------------|
B|---------------------------------------------------------------------------|
G|---------------------------------------------------------------------------|
D|---------------------------------------------------------------------------|  Xs 2
A|-------5-----7-----10-----8-----7-----8------------------------------------|
E|-0-0-0---0-0---0-0----0-0---0-0---0-0---0-1h3p1----------------------------|


e|---------------------------------------------------------------------------|
B|---------------------------------------------------------------------------|
G|---------------------------------------------------------------------------|
D|-------------------7-----5-----------5----------------------------7-----5--|
A|-------5-----7-----------------5----------------------5-----7--------------|
E|-8-8-8---7-7---5-5---5-5---5-5---5-5---5-5h8p5--8-8-8---7-7---5-5---5-5----|

e|---------------------------------------------------------------------------|
B|---------------------------------------------------------------------------|
G|---------------------------------------------------------------------------|
D|---------------------------------------------------------------------------|
A|-----5---------------------------------------------------------------------|
E|-5-5---0-1h3p1-------------------------------------------------------------|

e|---------------------------------------------------------------------------|
B|---------------------------------------------------------------------------|
G|---------------------------------------------------------------------------|
D|---------------------------------------------------------------------------|  Xs 4
A|-------5-----7-----10-----8-----7-----8------------------------------------|
E|-0-0-0---0-0---0-0----0-0---0-0---0-0---0-1h3p1----------------------------|


e|---------------------------------------------------------------------------|
B|---------------------------------------------------------------------------|
G|---------------------------------------------------------------------------|
D|-------------------7-----5-----------5----------------------------7-----5--|
A|-------5-----7-----------------5----------------------5-----7--------------|
E|-8-8-8---7-7---5-5---5-5---5-5---5-5---5-5h8p5--8-8-8---7-7---5-5---5-5----|

e|---------------------------------------------------------------------------|
B|---------------------------------------------------------------------------|
G|---------------------------------------------------------------------------|
D|----------0-----------------------------------------------------------------|
A|-----5~~--0-----------------------------------------------------------------|
E|-5-5------0-----------------------------------------------------------------|
                 THE END


************************************

| /   slide up
| \   slide down
| h   hammer-on
| p   pull-off
| ~   vibrato
| +   harmonic
| x   Mute note
| b   Bend
| pb  Pre-bend
| br  Bend release
| pbr Pre-bend release
| brb Bend release bend

************************************
Добавлено: 16.06.2016
Вам также может быть интересно:
Другие материалы по этой песне:
  • Аккорды и текст

Страница создана 16.06.2016
http://primanota.ru/arcane-awakening/spaceballs-chords.htm
Привет, Гость.
Предлагаем пройти революционный курс по гитаре.
Подарок от PrimaNota.Ru, забирай!