PrimaNota.ru - самый крупный в мире бесплатный архив песенных текстов, аккордов, табулатур и нот


Arcane Awakening - The Hunt - таба, видео

Регистрация Запомнить меня
Войти через:  Facebook Google Twitter Vk Yandex Mail.ru

Arcane Awakening - The Hunt - таба, видео

Печатать
Просмотров: 71
-------------------------------------------------------------------------------
                             THE HUNT - Arcane Awakening
-------------------------------------------------------------------------------
Tabbed by:
E-mail:

Tuning:
e|----------------------------------------------------------------------------|
B|----------------------------------------------------------------------------|
G|----------------------------------------------------------------------------|
D|-----------------------------8-7----7-----------------------------7h8p7-----|
A|---------------------------------10-------------------------------------10-8|
E|-000-000--0--000--0--000-000----------000-000--0--000--0--000-000-----------|

e|---------------------------------------------------------------------------|
B|---------------------------------------------------------------------------|
G|---------------------------------------------------------------------------|
D|-----------------------------8-7----7--------------------------------------|
A|---------------------------------10----------------------------------------|
E|-000-000--0--000--0--000-000-----------------------------------------------|

e|---------------------------------------------------------------------------|
B|---------------------------------------------------------------------------|
G|---------------------------------------------------------------------------|
D|--------------------7h8p7--------------------------------------------------|
A|--------------------------10-8-7h8p7---------------------------------------|
E|-888-888--8--888--8------------------8-7-----------------------------------|


e|---------------------------------------------------------------------------|
B|---------------------------------------------------------------------------|
G|---------------------------------------------------------------------------|
D|---------------------------------------------------------------------------|
A|---------8-7---------5-7-8---------8-7---5-7-8---7-8-10--------------------|X2
E|-000-000-----000-000-------000-000-----0-------0---------------------------|

e|---------------------------------------------------------------------------|
B|---------------------------------------------------------------------------|
G|---------------------------------------------------------------------------|X2
D|---------------------------------------------------------------------------|
A|---------8--7---------5-7-8---------8-7---5-7-8---7-8-10-------------------|
E|-888-888---8--555-555-------888-888-----5-------0--------------------------|

e|---------------------------------------------------------------------------|
B|---------------------------------------------------------------------------|
G|---------------------------------------------------------------------------|
D|---------------------------------7-----5-----------------------------------|X2
A|-------------------5-----7---8---------------8-----7-----5---7-------------|
E|-5-0-0-7-0-0-8-0-0---0-0---0---0---0-0---0-0---0-0---0-0---0---------------|

e|---------------------------------------------------------------------------|
B|---------------------------------------------------------------------------|
G|---------------------------------------------------------------------------|
D|---------------------------------------------------------------------------|
A|-8-8-8-8-8-8-8-8-7-7-7-7-7-7-7-7-------------------------------------------|
E|-8-8-8-8-8-8-8-8-7-7-7-7-7-7-7-7-8-0-0-7-0-0-5-0-7-0-5-0-2-3-2-0-----------

e|---------------------------------------------------------------------------|
B|---------------------------------------------------------------------------|
G|---------------------------------------------------------------------------|
D|---------------------------------------------------------------------------|
A|-8-8-8-8-8-8-8-8-7-7-7-7-7-7-7-7--000----000--0--000-000---000--0--000-----|
E|-8-8-8-8-8-8-8-8-7-7-7-7-7-7-7-7--000----000--0--000-000---000--0--000-----|

e|---------------------------------------------------------------------------|
B|---------------------------------------------------------------------------|
G|---------------------------------------------------------------------------|
D|---------------------------------------------------------------------------|
A|-8-8-8-8-8-8-8-8-7-7-7-7-7-7-7-7-------------------------------------------|
E|-8-8-8-8-8-8-8-8-7-7-7-7-7-7-7-7-8-0-0-7-0-0-5-0-7-0-5-0-2-3-2-0-----------


e|---------------------------------------------------------------------------|
B|---------------------------------------------------------------------------|
G|---------------------------------------------------------------------------|
D|---------------------------------------------------------------------------|
A|-8-8-8-8-8-8-8-8-7-7-7-7-7-7-7-7--000----000--0--000-000---000--0--000-----|
E|-8-8-8-8-8-8-8-8-7-7-7-7-7-7-7-7--000----000--0--000-000---000--0--000-----|

e|---------------------------------------------------------------------------|
B|---------------------------------------------------------------------------|
G|---------------------------------------------------------------------------|
D|-7h8p7---------------------------------------------------------------------|
A|-------10-8-7h8p7----------------------------------------------------------|
E|------------------8-7------------------------------------------------------|

e|---------------------------------------------------------------------------|
B|---------------------------------------------------------------------------|
G|---------------------------------------------------------------------------|
D|---------------------------------------------------------------------------|
A|---------8-7---------5-7-8---------8-7---5-7-8---7-8-10--------------------|X2
E|-000-000-----000-000-------000-000-----0-------0---------------------------|

e|---------------------------------------------------------------------------|
B|---------------------------------------------------------------------------|
G|---------------------------------------------------------------------------|X2
D|---------------------------------------------------------------------------|
A|---------8--7---------5-7-8---------8-7---5-7-8---7-8-10-------------------|
E|-888-888---8--555-555-------888-888-----5-------0--------------------------|

e|---------------------------------------------------------------------------|
B|---------------------------------------------------------------------------|
G|---------------------------------------------------------------------------|
D|---------------------------------7-----5----------------------------------- X2
A|-------------------5-----7---8---------------8-----7-----5---7-------------|
E|-5-0-0-7-0-0-8-0-0---0-0---0---0---0-0---0-0---0-0---0-0---0---------------|

e|---------------------------------------------------------------------------|
B|---------------------------------------------------------------------------|
G|---------------------------------------------------------------------------|
D|---------------------------------------------------------------------------|
A|-8-8-8-8-8-8-8-8-7-7-7-7-7-7-7-7-------------------------------------------|
E|-8-8-8-8-8-8-8-8-7-7-7-7-7-7-7-7-8-0-0-7-0-0-5-0-7-0-5-0-2-3-2-0-----------

e|---------------------------------------------------------------------------|
B|---------------------------------------------------------------------------|
G|---------------------------------------------------------------------------|
D|---------------------------------------------------------------------------|
A|-8-8-8-8-8-8-8-8-7-7-7-7-7-7-7-7--000----000--0--000-000---000--0--000-----|
E|-8-8-8-8-8-8-8-8-7-7-7-7-7-7-7-7--000----000--0--000-000---000--0--000-----|

e|---------------------------------------------------------------------------|
B|---------------------------------------------------------------------------|
G|---------------------------------------------------------------------------|
D|---------------------------------------------------------------------------|
A|-8-8-8-8-8-8-8-8-7-7-7-7-7-7-7-7-------------------------------------------|
E|-8-8-8-8-8-8-8-8-7-7-7-7-7-7-7-7-8-0-0-7-0-0-5-0-7-0-5-0-2-3-2-0-----------


e|---------------------------------------------------------------------------|
B|---------------------------------------------------------------------------|
G|---------------------------------------------------------------------------|
D|---------------------------------------------------------------------------|
A|-8-8-8-8-8-8-8-8-7-7-7-7-7-7-7-7--000----000--0--000-000---000--0--000-----|
E|-8-8-8-8-8-8-8-8-7-7-7-7-7-7-7-7--000----000--0--000-000---000--0--000-----|


**GUITAR BRIDGE**
e|---------------------------------------------------------------------------|
B|---------------------------------------------------------------------------|
G|---------------------------------------------------------------------------|
D|---------------------------------------------------------------------------|
A|-000-000-000-000-----------------------------------------------------------|
E|-000-000-000-000-----------------------------------------------------------|

INTRO BREAKDOWNS 

END OF SONG


|/ slide up
| \   slide down
| h   hammer-on
| p   pull-off
| ~   vibrato
| +   harmonic
| x   Mute note
| b   Bend
| pb  Pre-bend
| br  Bend release
| pbr Pre-bend release
| brb Bend release bend

************************************
Добавлено: 16.06.2016
Другие материалы по этой песне:
  • Аккорды и текст

Страница создана 16.06.2016
http://primanota.ru/arcane-awakening/hunt-chords.htm
Привет, Гость.
Предлагаем пройти революционный курс по гитаре.
Подарок от PrimaNota.Ru, забирай!