PrimaNota.ru - самый крупный в мире бесплатный архив песенных текстов, аккордов, табулатур и нот


Arcane Awakening - Bloodlust - таба, видео

Регистрация Запомнить меня
Войти через:  Facebook Google Twitter Vk Yandex Mail.ru

Arcane Awakening - Bloodlust - таба, видео

Печатать
Просмотров: 81
-------------------------------------------------------------------------------
                             Bloodlust (SIC)- Arcane Awakening
-------------------------------------------------------------------------------
Tabbed by:
E-mail:

Tuning: A-E-A-D-G#-B


INTRO
e|---------------------------------------------------------------------------|
B|---------------------------------------------------------------------------|
G|---------------------------------------------------------------------------|
D|---------------------------------------------------------------------------| X's 2
A|-0-0-0-0---0---0---0-0-0-0--0-0-0-0--0-0-0-0---0--0--------------3-2~------|
E|-0-0-0-0---0---0---0-0-0-0--0-0-0-0--0-0-0-0---0--0--0-5-7-8-7-5-3-2~------|


Harmonized Intro (Guitar #2)
e|---------------------------------------------------------------------------|
B|---------------------------------------------------------------------------|
G|---------------------------------------------------------------------------|
D|---------------------------------------------------------------------------| X's 2
A|-------5-5-8-8-7~-------7-7-8-10-8-7-5-------5-5---8-8---7~-------------3-3|
E|-0-0-0----0---0---0-0-0----------------0-0-0-----0-----0----0-5-7-8-7-5-3-2|


VERSE
e|---------------------------------------------------------------------------|
B|---------------------------------------------------------------------------|
G|---------------------------------------------------------------------------|\
D|-----------------------5-----8-----------------5---------------------------| \
A|-----------------0-5-7---7-5---5---------0-5-7---7-5-8-3-------------------|  \
E|-000-000-000-000-----------------000-000-----------------000-000-000-000---|   \
                                                                                  \ X's 2
e|---------------------------------------------------------------------------|    /
B|---------------------------------------------------------------------------|   /
G|---------------------------------------------------------------------------|  /
D|-------5-----8------------------2-2h4-2------------------------------------|/
A|-0-5-7---7-5---5----------0-2-3---------5-2--------------------------------|
E|------------------333-222--------------------------------------------------|


CHORUS
e|---------------------------------------------------------------------------|
B|---------------------------------------------------------------------------|
G|---------------------------------------------------------------------------| X's 4
D|---------------------------------------------------------------------------|
A|---------5h7--------10p7-----8p5---------5h7-------------------------------|
E|-0-0-0-0-----0-0-0-0-----0-0-----0-0-0-0-----0-0-0-5-7-8-7-5-3p2-----------|


Verse

Chorus (with this ending going into heavy riff)
e|---------------------------------------------------------------------------|
B|---------------------------------------------------------------------------|
G|---------------------------------------------------------------------------|
D|---------------------------------------------------------------------------|
A|-----8---7---0-0-----------------------------------------------------------|
E|-5-7-8---7---0-0-----------------------------------------------------------|


Heavy Riff With Drum Fill
e|---------------------------------------------------------------------------|
B|---------------------------------------------------------------------------|
G|-4-------------------------------------------------------------------------| X's 2
D|-2-------------3-3-------4---------3---------------------------------------|
A|---4-4--3-2-3--1-1--2-1--2--4-3-2--1--3-2-1--------------------------------|
E|---4-4--3-2-3-------2-1-----4-3-2-----3-2-1--------------------------------|


Heavy Riff (With Run)
e|---------------------------------------------------------------------------|
B|---------------------------------------------------------------------------|
G|-4-------------------------------------------------------------------------|
D|-2--------------3--------4-----------3-------------------------------------| Xs 4
A|----4--3--2--3--1--2--1--2--4--3--2--1--3--2--1----------------------------|
E|----4--3--2--3-----2--1-----4--3--2-----3--2--1----------------------------|



e|----------------------------------------------------------------------------------------------------------|
B|----------------------------------------------------------------------------------------------------------|
G|----------------------------------------------------------------------------------------------------------|
D|-------5-----8-------------------------2----------------------5-----8-------------------------2-2h4-2-----|
A|-0-5-7---7-5---5-----------------0-2-3-------------------0-5-7--7-5---5-----------------0-2-3---------5-2-|
E|-----------------000-0-000-0-000---------000-0-000-0-000----------------000-0-000-0-000-------------------|

e|----------------------------------------------------------------------------------|
B|----------------------------------------------------------------------------------|
G|----------------------------------------------------------------------------------|
D|----------------------------------------------------------------------------------|
A|----------------------------------------------------------------------------------|
E|-000-0-000-0-000--000-0-000-0-000-------------------------------------------------|
       
Paus knows rhythm under solo

*intro*
*Heavy Riff*


Heavy riff ending
e|---------------------------------------------------------------------------|
B|---------------------------------------------------------------------------|
G|---------------------------------------------------------------------------|
D|-4---4---------------------------------------------------------------------|
A|-2-3-2-3-3-2-1-------------------------------------------------------------|
E|---3---3-3-2-1-------------------------------------------------------------|
************************************

| /   slide up
| \   slide down
| h   hammer-on
| p   pull-off
| ~   vibrato
| +   harmonic
| x   Mute note
| b   Bend
| pb  Pre-bend
| br  Bend release
| pbr Pre-bend release
| brb Bend release bend

************************************
Добавлено: 05.06.2016
Другие материалы по этой песне:
  • Аккорды и текст

Страница создана 05.06.2016
http://primanota.ru/arcane-awakening/bloodlust-chords.htm
Привет, Гость.
Предлагаем пройти революционный курс по гитаре.
Подарок от PrimaNota.Ru, забирай!