PrimaNota.ru - самый крупный в мире бесплатный архив песенных текстов, аккордов, табулатур и нот


Arcane Awakening - Ape - таба, видео

Регистрация Запомнить меня
Войти через:  Facebook Google Twitter Vk Yandex Mail.ru

Arcane Awakening - Ape - таба, видео

Печатать
Просмотров: 76
Уроки эстрадного вокала в Санкт-Петербурге
-------------------------------------------------------------------------------
                             SONG NAME - Band Name
-------------------------------------------------------------------------------
Tabbed by:
E-mail:

Tuning:


Intro
e|---------------------------------------------------------------------------|
B|---------------------------------------------------------------------------|
G|---------------------------------------------------------------------------| 
D|-3--------------------------------------------------------3333-------------|  
A|-----2--------------------0--0----------------------0--0-------2222--------|
E|--------0000000000000000--0--0----1111111111111111--1--1-------------------|
      |-----------------------P.M.-----------------------|

e|---------------------------------------------------------------------------|
B|---------------------------------------------------------------------------|
G|---------------------------------------------------------------------------|
D|-------------------------------------------------------3333----------------|
A|-------------------0--0-------------------------0--0--------2222-----------|
E|-0000000000000000--0--0-------1111111111111111--1--1-----------------------|
  |-----------------------P.M.------------------|


chorus riff
e|---------------------------------------------------------------------------|
B|---------------------------------------------------------------------------|
G|---------------------------------------------------------------------2222--|----\
D|--------------------5555----------------------------------------3333-------|     \
A|----------5555-----------5555-6666--3333--------5555-----------------------|      \
E|-00000000------0000-----------------------0000--------0000-3333------------|       \
  |--P.M--|     |-PM-|                     |-PM-|                                     \ 
                                                                                       |
 |---------------------------------------------------------------------------|         |  X's 2
B|---------------------------------------------------------------------------|         | 
G|---------------------------------------------------------------------------|        /
D|-------------------------5555------------------------------------8888-7777-|       /
A|-2222----------5555-----------5555-6666-3333------7777------77777----------|      /
E|------00000000------0000---------------------5555------0055----------------| -----
       |--PM---|     |-PM-|                   |-PM-|
                                
                              **Guitar Bridge - Tim **
                                    
Alt. Pick over Breakdown {Garret)
e|---------------------------------------------------------------------------|
B|---------------------------------------------------------------------------|
G|---------------------------------------------------------------------------|
D|---------------------------------------------------------------------------|  X's 2
A|-3333333322223333--------------------33333333666655552222222222222222------|
E|------------------3333333333333333-----------------------------------------|


Breakdown

verse
e|---------------------------------------------------------------------------|
B|---------------------------------------------------------------------------|
G|---------------------------------------------------------------------------|
D|-----------------------------------------------5---------------------   ---| \
A|-5h8--------5h8---4h7-4h7-5h8------------5-7-8---8-7-5h8--------5h8---4h7--|  \
E|-----000000-----0----0-------000000--7h8-----------------000000-----0-----0|   \
                                                                                  \
e|---------------------------------------------------------------------------|     \  X's 2
B|---------------------------------------------------------------------------|     /
G|---------------------------------------------------------------------------|    /
D|---------------------------------------------------------------------------|   /
A|-4h7-5h8---------5h8p5---4h7p4---------------------------------------------|  /
E|---------000000--------6-------3-------------------------------------------|


Bridge
e|---------------------------------------------------------------------------|
B|---------------------------------------------------------------------------|
G|---------------------------------------------------------------------------|
D|-1---------3-5-------------------------------------------------------------|
A|---2-----4-----4---3-2-----------------------------------------------------|
E|-----3-5---------3-----1---------------------------------------------------|

*chorus riff*
*Tim's Bridge*


************************************

| /   slide up
| \   slide down
| h   hammer-on
| p   pull-off
| ~   vibrato
| +   harmonic
| x   Mute note
| b   Bend
| pb  Pre-bend
| br  Bend release
| pbr Pre-bend release
| brb Bend release bend

************************************
Добавлено: 26.12.2015
Другие материалы по этой песне:
  • Аккорды и текст

Страница создана 26.12.2015
http://primanota.ru/arcane-awakening/ape-chords.htm
Привет, Гость.
Предлагаем пройти революционный курс по гитаре.
Подарок от PrimaNota.Ru, забирай!