PrimaNota.ru - самый крупный в мире бесплатный архив песенных текстов, аккордов, табулатур и нот


Arcade Fire - Une Anne Sans Lumire - таба, видео

Регистрация Запомнить меня
Войти через:  Facebook Google Twitter Vk Yandex Mail.ru

Arcade Fire - Une Anne Sans Lumire - таба, видео

Печатать
Просмотров: 122
Arcade Fire - Une Année Sans Lumière

Tabbed by: Vivian L
   Questions and comments to tofus.for.life@gmail.com

Tuning:

e
a
F#
e
A
D

Intro:

--2--------------------|
-----0-----------------|
--------0-----0-----0--|   (repeat)
-----------0-----0-----|
-----------------------|
--0--0--0--0--0--0--0--|


Verse:

--2----------------------|-------------------------|--0-------------------------|------------------------------|
-----0-------------------|--0----------------------|-----0----------------------|--5-------------7-------------|
--------0-----0-----0----|-----0--------0-----0----|--------0-----0-----0-------|-----3-----(3)-----3-----3----|
-----------0-----0-----0-|--------0--0-----0-----0-|-----------0-----0-----0----|--------3-------------3-------|
--5--5--5--5--5--5--5--5-|-------------------------|--0--0----------------------|------------------------------|
-------------------------|--5--5--5--5--5--5--5--5-|--------0--0--0--0--0--0----|------------------------------|

(repeat as needed)


   then,


--2----------------------|--0---------------------------------------------|
-----0-------------------|-----0------------------------------------------|
--------0-----0-----0----|--------0-----0-----0----   then back to Intro -| Verse, and so on, until...
-----------0-----0-----0-|-----------0-----0-----0------------------------|
--5--5--5--5--5--5--5----|------------------------------------------------|
-------------------------|------------------------------------------------|


Chorus ("Hey, your old man should know...")

--2----------------------|-----------------------|--3-----------------------|--3------------------------|
-----0-------------------|--3--0-----------------|--------------------------|-----0---------------------|
--------0-----0-----0----|--------0-----0-----0--|-----1--0-----0-----0-----|--------1-----1-----1------|
-----------0-----0-----0-|-----------0-----0-----|-----------0-----0--------|-----------0-----0---------|
--5--5--5--5--5--5--5--5-|--0--0--0--0--0--0--0--|--------------------------|---------------------------|
-------------------------|-----------------------|--------------------------|---------------------------|

--2----------------------|
-----0-------------------|
--------0-----0-----0----|
-----------0-----0-----0-|
--5--5--5--5--5--5--5--5-|
-------------------------|


"Interlude":

--------------------------|-------------------|-------------------|-------------------|
--------------------------|-------------------|-------------------|-------------------|
--0-----0-----0-----0-----|--1---1---1---1----|--3---3---3---3----|--4---4---3---3----|    repeat, then:
-----0-----0-----0-----0--|----0---0---0---0--|----2---2---2---2--|----3---3---3---3--|
--5--5--5--5--5--5--5--5--|-------------------|-------------------|-------------------|
--------------------------|-------------------|-------------------|-------------------|


-------------------|------------------|------------------|---------------------------------|
-------------------|------------------|------------------|---------------------------------|
--0---0---0---0----|--1---1---1---1---|--3---3---3---3---|--5---5---5---5---5---5---5------|
----0---0---0---0--|----0---0---0---0-|----2---2---2---2-|----5---5---5---5---5---5--------|
-------------------|------------------|------------------|---------------------------------|
-------------------|------------------|------------------|---------------------------------|

Bridge/Outro:

----5-------------------------|
----5-7-5---------------------|
----5-----7-5-----------------|
----5---------7-5-------------|
----5-------------7-5---------|
----5-------------------------|

Basically, just strumming this G chord over and over again with the hammers
Repeat that 4 times, then:


----12-----------|strum this chord throughout, with the occasional hammer thing on the high a string
----12--(14-12)--|
----12-----------|
----12-----------|
----12-----------|
----12-----------|

Repeat that, until the "HEY!" then go back to this:

----5-------------------------|
----5-7-5---------------------|
----5-----7-5-----------------|   (Repeat as needed, with variations of the G chord, etc)
----5---------7-5-------------|
----5-------------7-5---------|
----5-------------------------|


End on the G, then:

---------------------|
--14-14--7-7----9----|
---------------------|
---------------------|
---------------------|
---------------------|
Добавлено: 07.05.2012
Другие материалы по этой песне:
  • Аккорды и текст

Страница создана 07.05.2012
http://primanota.ru/arcade-fire/une-anne-sans-lumire-chords.htm
Привет, Гость.
Предлагаем пройти революционный курс по гитаре.
Подарок от PrimaNota.Ru, забирай!