PrimaNota.ru - самый крупный в мире бесплатный архив песенных текстов, аккордов, табулатур и нот


Arata Iiyoshi - In The Hands Of Fate - таба, видео

Регистрация Запомнить меня
Войти через:  Facebook Google Twitter Vk Yandex Mail.ru

Arata Iiyoshi - In The Hands Of Fate - таба, видео

Печатать
Просмотров: 99
Уроки эстрадного вокала в Санкт-Петербурге
-------------------------------------------------------------------------------
                             SONG NAME - Band Name
-------------------------------------------------------------------------------
Tabbed by:Kekkowolf99
E-mail:kekkowolf99@gmail.com
Description: an easy and sad intro of PMD Explorers of Sky 

Tuning:standard

e|----------0------------------------------0-------------0-0-----------------|
B|----0-1-3------3-1-0---0-----------0-1-3-----3-1-0--0---3------------------|
G|--0---------2------0-0---2-------0---------2-----0-0-2---------------------|
D|----------3----------------2-0-2---------3---------------------------------|
A|---------------------------------------------------------------------------|
E|---------------------------------------------------------------------------|

e|----------0---------------------------------------0------------------------|
B|----0-1-3------3-1-0---0-----------------1-0------0------------------------|
G|--0---------2------0-0---2---------0-2-2-----2-0--0------------------------|
D|----------3----------------2-0-2-2----------------2------------------------|
A|--------------------------------------------------2------------------------|
E|--------------------------------------------------0------------------------|




************************************

| /   slide up
| \   slide down
| h   hammer-on
| p   pull-off
| ~   vibrato
| +   harmonic
| x   Mute note
| b   Bend
| pb  Pre-bend
| br  Bend release
| pbr Pre-bend release
| brb Bend release bend

************************************
Добавлено: 24.12.2015
Другие материалы по этой песне:
  • Аккорды и текст

Страница создана 24.12.2015
http://primanota.ru/arata-iiyoshi/in-hands-of-fate-chords.htm
Привет, Гость.
Предлагаем пройти революционный курс по гитаре.
Подарок от PrimaNota.Ru, забирай!