PrimaNota.ru - самый крупный в мире бесплатный архив песенных текстов, аккордов, табулатур и нот


Aram Bedrosian - A Dark Light - аккорды и текст, видео

Регистрация Запомнить меня
Войти через:  Facebook Google Twitter Vk Yandex Mail.ru

Aram Bedrosian - A Dark Light - аккорды и текст, видео

Печатать
Просмотров: 1143
Уроки эстрадного вокала в Санкт-Петербурге
A Dark Light
Aram Bedrosian
Tabbed by: CGjellybeans

Tuning: Standard
4/4
G|12h14h16-x-x-16h17h19-19|------21-17-----17h16-16|
D|14-----------17-------16|---17----14-------------|
A|------------------------|---------15----15-------|
E|------------------------|------------------------|

G|------16--x-14-x-x-x-x12|------12--12-12---12-x-x|
D|14-14-14----12--------10|---10-10-10-10-10-10-x-x|
A|------------------------|------------------------|
E|------------------------|------------------------|

G|12h14h16-x-x-16h17h19-19|------21-17-----17h16-16|
D|14-----------17-------16|---17----14-------------|
A|------------------------|---------15----15-------|
E|------------------------|------------------------|

G|------16--x-14-x-x-x-x12|------12--12-12---------|
D|14-14-14----12--------10|---10-10-10-10-10-10----|
A|------------------------|------------------------|
E|------------------------|------------------------|

G|12h14h16-x-x-16h17h19-19|------21-17-----17h16-16|
D|14-----------17-------16|---17----14--10-14------|
A|------------------------|---------15---------(15)|
E|0-----------------------|------------------------|

                                    |-3-|
G|---16-16---0---14---x-12|------12------------12-x-x|
D|-14---14-----12-------10|---10-10---12-------10-x-x|
A|------------------------|----------10--------------|
E|12----0-----10---------8|------8--8----8--8--8-----|

                            |--4--|        |----4----|
G|12h14h16----16h17h19-19-|---19-----21-17-(17)17-----17-16--16|
D|14----------17-------16-|-----16------14-------14------------|
A|---------------------17-|-17----17----15---------15----------|
E|0-----------15----------|------------------------------------|

G|---16-16---x------14-12-|------12--------12/14---|
D|-1414-14-------12----10-|---10-10----------------|
A|------------------------|-----------10---------0~|
E|12----0-----10--------8-|-------88----8----------|

G|------14-------------14-------------------1214|
D|------------11h12-12----11h12-11h12-------0---|
A|~~~~~~~~~~~~~~~~~~~~~~~~----------------------|
E|----------------------------------------------|
  1     &     2     &     3     &     4     &

                       Play at Bridge________
G|------14--14---14----17-|---16----14----16----|
D|---0--12-0120--12----13-|---13----13----13----|
A|------------------------|---------------------|
E|------------------------|---------------------|

Tapping Part
              |--3---|            T  T  T     T  T
G|------------12h14p12---0--------------12-------14~|
D|------12h14---------14----------12-14-------12----|
A|--------------------------------------------------|
E|0~~~~~~~~~~~~~~~~~~~~~~~~~h3~~~~~~~~~~~~~~~~~~~~~~|

        T  T  |--3---|T  T        T  T  T     T
G|~~~---------12-14-12---12-------------12----14----|
D|------12-14---------14----------12-14-------------|
A|h5~~~~~~~~~~~~~~~~~~~~~~~~h3~~~~~~~~~~~~~~~~~~~~~~|
E|--------------------------------------------------|
 
             |--3---|             T  T  T     T  T
G|------------12h14p12---0--------------12-------14-|
D|------12h14---------14----------12-14-------12----|
A|--------------------------------------------------|
E|0~~~~~~~~~~~~~~~~~~~~~~~~~h3~~~~~~~~~~~~~~~~~~~~~~|

     T  T  T
G|---14-16-12~~~~~~~~~~~~~|~~~~~~~~~~~~~~(12)---------------------|
D|------------------------|---------------------------------------|
A|5~~~~~~~~3~~~~~~~~~~~~~~|~~~~~~~~~~~~~~~3/----------------------|
E|------------------------|---------------------------------------|

                            |--4--|         |--4--|  |----4----|
G|12h14h16-x-x16h17h19-19-|---19-----21-17----17-----17P16-17p16|
D|14----------17-------16-|-----16------14--14--14--------------|
A|---------------------17-|-17----17----15--------15------------|
E|0-----------15----------|-------------------------------------|

G|------16---0------14-12-|-12---12--12~~~------12-|
D|---14-12--0----12----10-|10----------------10----|
A|------------------------|------------------------|
E|12----12-0--10-------8--|---8-----8-----8--------|

                            |--4--|         |--4--|  
G|12h14h16-x-x16h17h19-19-|---19-----21-17----17-----17-16--16|
D|14----------17-------16-|-----16------14--14--14------------|
A|---------------------17-|-17----17----15--------15----------|
E|0-----------15----------|-----------------------------------|

G|---16-16---0------14-12~|~~~---12--12---12/14----|
D|----------0----12----10~|~~~10-10-10-------------|
A|-14---------------------|---------------------0~~|
E|12----0--0--10-------8~~|~~~---8--8--8-----------|

G|---14----------------14-------------------12H14-|
D|------11----11H12-12----11H12-11H12-------0-----|
A|~~~------0--------------------------------------|
E|------------------------------------------------|

                       Play at bridge____________
G|-14---14----14-------17-|---16----14----16----|
D|0--0--12-12----12----13-|---13----13----13----|
A|------------------------|---------------------|
E|------------------------|---------------------|

              |--3---|            T  T  T     T  T
G|------------12h14p12---0--------------12-------14~|
D|------12h14---------14----------12-14-------12----|
A|--------------------------------------------------|
E|0~~~~~~~~~~~~~~~~~~~~~~~~~h3~~~~~~~~~~~~~~~~~~~~~~|

        T  T  |--3---|T  T        T  T  T     T
G|~~~---------12-14-12---12-------------12----14----|
D|------12-14---------14----------12-14-------------|
A|h5~~~~~~~~~~~~~~~~~~~~~~~~h3~~~~~~~~~~~~~~~~~~~~~~|
E|--------------------------------------------------|
 
              |--3---|            T  T  T     T  T
G|------------12h14p12---0--------------12-------14-|
D|------12h14---------14----------12-14-------12----|
A|--------------------------------------------------|
E|0~~~~~~~~~~~~~~~~~~~~~~~~~h3~~~~~~~~~~~~~~~~~~~~~~|

G|---14-16-12-----16/1716|
D|---------------5--------|
A|5~~~~~~~-3~~------------|
E|------------------------|

              |--3---|            T  T  T     T  T
G|------------12h14p12---0--------------12-------14-|
D|------12h14---------14----------12-14-------12----|
A|--------------------------------------------------|
E|0~~~~~~~~~~~~~~~~~~~~~~~~~h3~~~~~~~~~~~~~~~~~~~~~~|

G|------------14--------------12----12----12------|
D|------7-------------------12----12----12--------|
A|5-----------------5-----------------------------|
E|------------------------8-----7-----5-----3-----|

              |--3---|            T  T  T      
G|------------12h14p12---0--------------12---------|
D|------12h14---------14----------12-14-------------|
A|--------------------------------------------------|
E|0~~~~~~~~~~~~~~~~~~~~~~~~~h3~~~~~~~~~~~~~~~~~~~~~~|

G|------------14----------------14----------------|
D|---11/1211----------11/12----------------------|
A|0-----------------0-----------------------------|
E|------------------------------------12---8~~~~~|

           |-3-|
G|------12----12------12----|----------------------24|
D|---10-10--10--------10----|------------------------|
A|--------------------------|------------------------|
E|~~~---8--8----8--8--8--8--|8--8--8--8--8--8--8--0--|

Play at bridge
G|---2423----21----19----16----16----16-17----14~|
D|------------------------------------------------|
A|------------------------------------------------|
E|0--------0--------------15-------15----------10~|

G|~~~14-------1412----0--19-------17----19----14~|
D|------0-----------0-----17-------17----17----14-|
A|------------------------15-15-15----15----------|
E|~~~------10-------------------------------0-----|

G|h1616-------12----14----------14-12----14-------|
D|------14-------14----14----12-------12----12----|
A|------------------------10----------------------|
E|---------0-----------------------------------10~|

G|------14----12----14---/19-------17----16----24~|
D|---------0-----12-------17-------17----17-------|
A|------------------------15-15-15----15----------|
E|~~~10----------------------------------------0~~|

G|~~~24/23----21----19----16----16----16-17----14~|
D|------------------------------------------------|
A|------------------------------------------------|
E|~~~---------------------15-------15----------10~|

G|~~~14-------1412----0--19-------17----19----14~|
D|------0-----------0-----17-------17----17----14-|
A|------------------------15-15-15----15----------|
E|~~~------10-------------------------------0-----|

G|h1616-------12----14----------14-12----14-------|
D|------14-------14----14----12-------12----12----|
A|------------------------10----------------------|
E|---------0-----------------------------------10~|

G|------14----12----14---/19-------17----16-------|
D|---------------12-------17-------17----17-------|
A|------------------------15-15-15----15----15-15-|
E|~~~10----10-------------------------------------|

                                                   2/4
G|19-------17----16-------19-------17----16-------|19----------16----------|
D|17-------17----17-------17-------17----17-------|17----------17----------|
A|---15-15----15----15-15----15-15----15----15-15-|------15----------------|
E|------------------------------------------------|------------------------|

4/4Play in Normal Position
G|12-14-16-x-x16-17-19-19-|
D|14----------17-------16-|
A|---------------------17-|
E|0~~~~~~~~~~-15~~~~~~~---|

G|---19-------21----17-------17-------17h16----16-|
D|------16----------14----------14----------------|
A|17-------17-------15-------------15-------------|
E|------------------------------------------------|

                  |-2-|
G|------16-x-x14--14-14-x-x12~|~~~---12--12---12/14----|
D|14-14-14----12--12-12----10~|~~~10-10-10-10----------|
A|----------------------------|---------------------0~~|
E|----------------------------|------------------------|

        Play At Bridge     Fade out
G|---------14~~~~~~~~~~~~~|~~~~~~~~~~~~~~~~~~~~~~~~|
D|------11----------------|------------------------|
A|~~~~~~------------------|------------------------|
E|------------------------|------------------------|

| /  slide up
|   slide down
| h  hammer-on
| p  pull-off
| ~  hold note
| +  harmonic
| x  Mute note
| T  Tap
| |-3-| Triplet
Добавлено: 07.01.2014
Другие материалы по этой песне:

Страница создана 09.03.2012
http://primanota.ru/aram-bedrosian/a-dark-light-chords.htm
Привет, Гость.
Предлагаем пройти революционный курс по гитаре.
Подарок от PrimaNota.Ru, забирай!