PrimaNota.ru - самый крупный в мире бесплатный архив песенных текстов, аккордов, табулатур и нот


Ar Rahman - Malargale - бас-таба, видео

Регистрация Запомнить меня
Войти через:  Facebook Google Twitter Vk Yandex Mail.ru

Ar Rahman - Malargale - бас-таба, видео

Печатать
Просмотров: 106
-------------------------------------------------------------------------------
                             Malargale - A.R Rahman
-------------------------------------------------------------------------------
Tabbed by:ronad2 
E-mail: manupremruthu@yahoo.com

Tuning:EADGBE
No Bass During Chorus
Bass Starts At Interlude.
[Finger Bass]


G|---------------4-|---------------4-|---------------4----|-4-7-5-4---------------|
D|-------6-7-7-6---|-------6-7-7-6---|-------6-7-7-6---6-7|--------7-6-9-7-6------|
A|-5-5-7-----------|-5-5-7-----------|-5-5-7--------------|------------------7-5--|
E|-----------------|--------------------------------------|----------------------7|

REPEAT SAME FOR SOLO


VERSES

[Slap Bass]

G|-----|-----|-----|-----|
D|-----|-----|-----|-----|    X REPEAT AS MANY TIMES AS REQUIRED
A|-5-5-|-5-5-|-5-5-|-5-5-|
E|-----|-----|-----|-----|





| /  slide up
| \  slide down
| h  hammer-on
| p  pull-off
| ~  vibrato
| +  harmonic
| x  Mute note
===============================================================================
Добавлено: 28.07.2015
Другие материалы по этой песне:
  • Аккорды и текст

Страница создана 28.07.2015
http://primanota.ru/ar-rahman/malargale-chords.htm
Привет, Гость.
Предлагаем пройти революционный курс по гитаре.
Подарок от PrimaNota.Ru, забирай!