PrimaNota.ru - самый крупный в мире бесплатный архив песенных текстов, аккордов, табулатур и нот


Ar Rahman - Anjali Anjali - таба, видео

Регистрация Запомнить меня
Войти через:  Facebook Google Twitter Vk Yandex Mail.ru

Ar Rahman - Anjali Anjali - таба, видео

Печатать
Просмотров: 229
Tabbed By: IcyFingers
email: pizza_brad@yahoo.com
Artist: AR Rahman/SPB/Chitra
Tuning: Standard

Intro

Saxophone/Vocals(Humming) transcribed for Guitar

e|------------------------------|-----------------------------------|
B|-2h3s10-9h10-9-s5-s8-7-s3-2v--|-2h3s10-s15-14-10v-5-7-8-7-5sh3-2v-|
G|------------------------------|-----------------------------------|
D|------------------------------|-----------------------------------|
A|------------------------------|-----------------------------------|
E|------------------------------|-----------------------------------|

e|----------------------------------------------|2x
B|-----2-2-3-3-5-5-----------2-2-3-3-s7-5-------|
G|-2h4-------------4-4-4-2h4--------------4-4-4-|
D|----------------------------------------------|
A|----------------------------------------------|
E|----------------------------------------------|

e|-----------------------------------------------------------------------|
B|-5h7h8-7h8h10-12-15-15b17-14-15-17b20r17-15-17-17b20r17-15-17-17b20r17-|
G|-----------------------------------------------------------------------|
D|-----------------------------------------------------------------------|
A|-----------------------------------------------------------------------|
E|-----------------------------------------------------------------------|

e|-17b20v-|

Keyboards transcribed for Guitar

e|-s8-7-5-3v----2-3-5-3v-s8-7-5-3v-----2-3-2h3v-|
B|----------2h4--------------------2h4----------|
G|----------------------------------------------|
D|----------------------------------------------|
A|----------------------------------------------|
E|----------------------------------------------|


Chorus 1 (SPB)
D             G         D
anjali anjali pushpaanjali-2 
D                    A
poovE un paadhatthil pushpaanjali
Bm                 A
ponnE un peyarukku ponnaanjali
D                  A
kaNNE un kuralukku geethaanjali
Bm                   A
kaN kaNaa azhagirkku kavithaanjali
(Repeat)

Verse 1 (SPB)
Bm                            D        A
kaadhal vandhu theendum varai iruvarum thanitthani
Bm        A          G           D          
kaadhalin ponsangili iNaitthadhu kaNmaNi
Bm                           D           A
kadalile mazhai veezhndhapin endhatthuLi mazhaitthuLi
Bm        A             G            D
kaadhalil adhu pOlanaan kalandhittEn kaadhali
Bm         Em            G        Bm 
thirumagaL thiruppaadham piditthu vittEn
Bm        Em           G        Bm
dhinamoru pudhuppaadal vaditthu vittEn
Em            Bm      A         D    
anjali anjali ennuyirkkaadhali, poovE..

Verse 2 (Chitra)
Bm                     D           A   
seethayin kaadhal anru vizhi vazhi nuzhaindhadhu
Bm       A            G          D
kOdhayin kaadhal inru Sevi vazhi pugundhadhu
Bm                D           A  
ennavO ennenjinai iSai vandhu thuLaitthadhu
Bm          A              G     D
iSai vandha paadhai vazhi tamizh mella nozhaindhadhu
Bm          Em             G     Bm
isai vandha dhisai paarthu manam kuzhainthen
Bm             Em             G    Bm
thamizh vandha dhiSai paarthu uyir kaSindhEn
Em            Bm         A         
anjali anjali ivai kalaikkaadhali

Chorus 2 (Chitra)
D               A
anbe un anbukku pushpaanjali
Bm                 A
naNbaa un kaNNukku nadanaanjali
D                     A
kaNNaa un iSai vaazha geethaanjali
Bm                       A
kaviyE un thamizh vaazha kavithaanjali

Chorus 1 (SPB)
D
anjali..

Verse 3 (SPB)
Bm                   D         A
azhagiye unaippOlavE adhiSayam illayE
Bm     A             G            D
anjali pEraicchollen avizhndhadhu mullayE
Bm                        D          A
kaarthigai maadham pOnaal kadumazhai illayE
Bm      A          G           D
kaNmaNi neeyillayE kavidhaigaL illayE
Bm       Em       G    Bm  
neeyenna nilavOdu pirandhavaLaa
Bm        Em        G     Bm 
poovukkuL karuvaagi vaLarndhavaLaa
Em            Bm     A          D
anjali anjali ennuyirkkaadhali, poovE..

Chorus 1 (SPB)
Добавлено: 20.07.2012
Другие материалы по этой песне:
  • Аккорды и текст

Страница создана 20.07.2012
http://primanota.ru/ar-rahman/anjali-anjali-chords.htm
Привет, Гость.
Предлагаем пройти революционный курс по гитаре.
Подарок от PrimaNota.Ru, забирай!