PrimaNota.ru - самый крупный в мире бесплатный архив песенных текстов, аккордов, табулатур и нот


Aquabats - Yo Check Out This Ride - текст песни, таба, видео

Регистрация Запомнить меня
Войти через:  Facebook Google Twitter Vk Yandex Mail.ru

Aquabats - Yo Check Out This Ride - текст песни, таба, видео

Печатать
Просмотров: 210
Уроки эстрадного вокала в Санкт-Петербурге
                 



Artist : The Aquabats 
Song   : Yo Check Out this Ride
Album  : Yo Check Out this Ride

Tabbed by Morton256:


I decided to try and write this tab because there are no decent ones out there. 

Any criticism is welcome because i know its not 100% but its as good as i can get it atm :)

I will try and figure out the rest soon 

email: morton12@live.com

Intro
e|--------------------------------------------------------------------------|
B|--------------------------------------------------------------------------|
G|-7-7-7-------7-7-7-------5-5-3---10-12------------------------------------|
D|-5-5-5--7-7--5-5-5--7-7--3-3-3----8-10------------------------------------|
A|--------5-5---------5-5---------------------------------------------------|
E|--------------------------------------------------------------------------|x2 

e|--------------------------------------------------------------------------|
B|--------------------------------------------------------------------------|
G|-7-7-7-------7-7-7-------5-5-3--------------------------------------------|
D|-5-5-5--7-7--5-5-5--7-7--3-3-3--/8----------------------------------------|
A|--------5-5---------5-5-------------77777/9999x9999/11111111--------------|
E|------------------------------------55555/7777x7777/-9-9-9-9--------------|



Verse
e|--------------------------------------------------------------------------|
B|--------------------------------------------------------------------------|
G|7-7-7---7-7-7-7-7---------------------0h3~--------------------------------|
D|5-5-5---5-5-5-5-5---------------5h3h3-------------------------------------|
A|---------------------333333333--------------------------------------------|
E|--------------------------------------------------------------------------|

Not sure on this bit so any corrections or tips are welcome :)

And thats all i've got so far sorry :| its an awesome song 

                               
Добавлено: 14.04.2012
Другие материалы по этой песне:
  • Аккорды и текст

Страница создана 04.03.2012
http://primanota.ru/aquabats/yo-check-out-this-ride-chords.htm
Привет, Гость.
Предлагаем пройти революционный курс по гитаре.
Подарок от PrimaNota.Ru, забирай!