PrimaNota.ru - самый крупный в мире бесплатный архив песенных текстов, аккордов, табулатур и нот


Aquabats - Super Rad - текст песни, таба, бас-таба, видео

Регистрация Запомнить меня
Войти через:  Facebook Google Twitter Vk Yandex Mail.ru

Aquabats - Super Rad - текст песни, таба, бас-таба, видео

Печатать
Просмотров: 195
intro/verse (ska rhythm):
   F#      E      B      F#
E:-6-------4------7------6------|
B:-7-(x16)-5-(x4)-7-(x4)-7-(x8)-|
G:-6-------4------8------6------|
D:----------------9-------------|
A:------------------------------|
E:------------------------------|

chorus:
   Eb              E
E:----------------------------------|
B:----------------------------------|
G:----------------------------------|
D:-----9-9-8-8---------9-9-8-8------|
A:-6-6---------9-9-7-7---------9-9--|
E:----------------------------------|
   F#                  Eb
E:----------------------------------------|
B:----------------------------------------|
G:---------------------8-8-9-9-8-8--------|
D:-----11-11-9-9-11-11-------------11-11--|
A:-9-9------------------------------------|
E:----------------------------------------|
   Eb              E
E:----------------------------------|
B:----------------------------------|
G:----------------------------------|
D:-----9-9-8-8---------9-9-8-8------|
A:-6-6---------9-9-7-7---------9-9--|
E:----------------------------------|
   F#              E
E:----------------------------------|
B:----------------------------------|
G:----------------------------------|
D:-----8-8-6-6---------6-6-4-4------|
A:-9-9---------9-9-7-7---------7-7--|
E:----------------------------------|

bridge:
   F#  E       F#   E       B      E F#       E
E:-6-6-4-4-4-4-6-6-----------------------------------|
B:-7-7-5-5-5-5-7-7-----------------------------------|
G:-6-6-4-4-4-4-6-6--9--------------9-11-------9-9----|
D:------------------9-(x4)--9------9-11-(x12)-9-9----|
A:------------------7-------9-(x3)-7-9--------7-7----|
E:--------------------------7------------------------|

ending: same as bridge, but change first F# & E chords
        to power chords, and end on F#

song order:
INTRO
VERSE
CHORUS
VERSE
CHORUS
BRIDGE
intro & verse (no guitar)
CHORUS
BRIDGE
ENDING
Добавлено: 27.03.2012
Другие материалы по этой песне:

Страница создана 14.03.2012
http://primanota.ru/aquabats/super-rad-chords.htm
Привет, Гость.
Предлагаем пройти революционный курс по гитаре.
Подарок от PrimaNota.Ru, забирай!