PrimaNota.ru - самый крупный в мире бесплатный архив песенных текстов, аккордов, табулатур и нот


Aquabats - Ska Robot Army - текст песни, таба, видео

Регистрация Запомнить меня
Войти через:  Facebook Google Twitter Vk Yandex Mail.ru

Aquabats - Ska Robot Army - текст песни, таба, видео

Печатать
Просмотров: 157
The Aquabats
Ska Robot Army
The Return of the Aquabats!

Tabbed By: Mickey Iotov

Intro
E|--7----------10----------5----------7---------------|
B|--7----------10----------5----------7---------------|
G|--8----------11----------6----------8---------------|  x2
D|--9----------12----------7----------9---------------|  
A|--9----------12----------7----------9---------------|
E|--7----------10----------5----------7---------------|

Chorus
E|---7------1010---10---10---10----55---5---5---5-----|  listen to the song
B|---7-x8---1010---10---10---10----55---5---5---5-----|  and youll figure
G|---8------1111---11---11---11----66---6---6---6-----|  it out
D|---9------1212---12---12---12----77---7---7---7-----| x8  
A|----------------------------------------------------|
E|----------------------------------------------------|

Bass Chorus (Guitar does this too but only the first 4 times)
G|------------------4----------------2--------------------------------|
D|------4-4-5-4-2-4-----4-4-5-4-2-4-----4-4-5-4-2-4-2----2-2-4-2------|
A|--2------------------------------------------------------------5-4--| x8
E|--------------------------------------------------------------------|

Verse (0:59)
E|--3-----7------3------7-----------------------------|
B|--3-x4--7-x4---3-x4---7-----------------------------|
G|--4-----8------4------7-----------------------------|
D|--5-----9------5------8-----------------------------|
A|----------------------9-----------------------------|
E|----------------------------------------------------|

E|--3-----7-----5-----4------3------------------------|
B|--3-x4--7-x4--5-x4--4------3------------------------|
G|--4-----8-----6-----5------4------------------------|
D|--5-----9-----7-----6------5------------------------|
A|----------------------------------------------------|
E|----------------------------------------------------|

Outro
E---7----------------|
B|--7----------------|
G|--8----------------|
D|--9----------------|
A|--9----------------|
E---7----------------|


Song Order

Intro
Chorus
Verse
Chorus
Verse
Outro

This is the Trumpet part on guitar, played at the chorus too (you kinda need
E|------------------------------------------------------------|fast fingers)
B|-----------------------------------------22---2-------------|
G|--4-4--77-4-7-4-3-4-4--77--4-7-4-3- 2-2-----2---2-3-4-4-7-4-|
D|------------------------------------------------------------|
A|------------------------------------------------------------|
E|------------------------------------------------------------|

Ands thats it.
Its a pretty nice song to jam on. Peace dawgs.



Добавлено: 24.06.2012
Другие материалы по этой песне:

Страница создана 24.06.2012
http://primanota.ru/aquabats/ska-robot-army-chords.htm
Привет, Гость.
Предлагаем пройти революционный курс по гитаре.
Подарок от PrimaNota.Ru, забирай!