PrimaNota.ru - самый крупный в мире бесплатный архив песенных текстов, аккордов, табулатур и нот


Aquabats - Poppin A Wheelie - таба, видео

Регистрация Запомнить меня
Войти через:  Facebook Google Twitter Vk Yandex Mail.ru

Aquabats - Poppin A Wheelie - таба, видео

Печатать
Просмотров: 116
Уроки эстрадного вокала в Санкт-Петербурге
"Poppin' A Wheelie!"
The Aquabats
Hi-Five Soup!

Standard Tuning
EADGBe 

195 BPM


KEY

\ == Slide Down
/ == Slide Up
. == Palm Mute
(#) == Tied Note
+ == Tied Note

|-Guitar 1
|            
|
|-Guitar 2
(Where applicable)

If there's a two-digit fret (ex. 10), any marks for that note will be over the 
second number (ex. 0)



Intro


   E E E S S E E E S S   E E E S S E E E S S   E E E S S E E E S S   E E E E Q  Q

e|-5-5-5---------------|---------------------|-----------------5-5-|-5-5-5-5-5-----|
B|-5-5-5-5-5-5-5-5-----|---------------------|-------5-5-5-5-5-5-5-|-5-5-5-5-5-----|
G|-2-2-2-4-4-4-4-4-4-4-|-4-4-4-----------4-4-|-4-4-4-4-4-4-4-4-2-2-|-2-2-2-2-2-----|
D|-------2-2-2-2-2-4-4-|-4-4-4-4-4-4-4-4-4-4-|-4-4-4-2-2-2-2-2-----|---------------|
A|-----------------2-2-|-2-2-2-4-4-4-4-4-2-2-|-2-2-2---------------|-----------12\-|
E|---------------------|-------2-2-2-2-2-----|---------------------|---------------|


   E E E E E E E E   E E E E E E E E   E E E E E E E E   E E E E E E E E  
   . . . . . . . .   . . . . . . . .   . . . . . . . .   . . . . . . . .
e|-----------------|-----------------|-----------------|-----------------|
B|-----------------|-----------------|-----------------|-----------------|
G|-----------------|-----------------|-----------------|-2-2-2-2-2-2-2-2-|
D|-2-2-2-2-2-2-2-2-|-2-2-2-2-2-2-2-2-|-2-2-2-2-2-2-2-2-|-2-2-2-2-2-2-2-2-|
A|-0-0-0-0-0-0-0-0-|-0-0-0-0-0-0-0-0-|-0-0-0-0-0-0-0-0-|-0-0-0-0-0-0-0-0-|
E|-----------------|-----------------|-----------------|-----------------|



Verse 1


   E E E E E E E E   E E E E E E E E   E E E E E E E E   E E E E E E E E
   . . . . . . . .   . . . . . . . .   . . . . . . . .   . . . . . . . .
e|-----------------|-----------------|-----------------|-----------------|
B|-5---5---5---5---|-9---9---9---9---|-5---5---5---5---|-5---5---5---5---|
G|---6---6---6---6-|---9---9---9---9-|---6---6---6---6-|---6---6---6---6-|
D|-----------------|-----------------|-----------------|-----------------|
A|-----------------|-----------------|-----------------|-----------------|
E|-----------------|-----------------|-----------------|-----------------|
 |
 | 
 | E E E E E E E E   E E E E E E E E   E E E E E E E E   E E E E E E E E
 | . . . . . . . .   . . . . . . . .   . . . . . . . .   . . . . . . . .  
e|-----------------|-----------------|-----------------|-----------------|
B|-----------------|-----------------|-----------------|-----------------|
G|-----------------|-----------------|-----------------|-----------------|
D|-2-2-2-2-2-2-2-2-|-6-6-6-6-6-6-6-6-|-----------------|-----------------|
A|-0-0-0-0-0-0-0-0-|-4-4-4-4-4-4-4-4-|-4-4-4-4-4-4-4-4-|-4-4-4-4-4-4-4-4-|
E|-----------------|-----------------|-2-2-2-2-2-2-2-2-|-2-2-2-2-2-2-2-2-|


   E E E E E E E E   E E E E E E E E    E E  E E  E E  E E    E E  E E  E E  E E
   . . . . . . . .   . . . . . . . .    . .  . .  . .  . .    . .  . .  . .  . .
e|-----------------|-----------------|---------------------|---------------------|
B|-7---7---7---7---|-9---9---9---9---|-10---10---10---10---|-10---10---10---10---|
G|---7---7---7---7-|---9---9---9---9-|----9----9----9----9-|----9----9----9----9-|
D|-----------------|-----------------|---------------------|---------------------|
A|-----------------|-----------------|---------------------|---------------------|
E|-----------------|-----------------|---------------------|---------------------|
 | 
 |
 | E E E E E E Q     E E E E E E Q      E E  E E  E E  E E    E E  E E  E E  E E
 | . .   . . .       . .   . . . 
e|-----------------|-----------------|---------------------|---------------------|
B|-----------------|-----------------|---------------------|---------------------|
G|-----7-----------|-----9-----------|-------2------2------|--2-2--2-2--2-2--2-2-|
D|-7-7-7-7-7-7-----|-9-9-9-9-9-9-----|--2-2--2-2--2-2--2-2-|--2-2--2-2--2-2--2-2-|
A|-5-5-5-5-5-5-5\/-|-7-7-7-7-7-7-7\--|--0-0--0-0--0-0--0-0-|--0-0--0-0--0-0--0-0-|
E|-----------------|-----------------|---------------------|---------------------|



Chorus 1


   Q Q Q Q   Q Q Q Q   W         +W          Q Q Q Q   Q Q Q Q   W         +W
   
e|-3-3-----|---------|---------|-----------|-3-3-----|---------|---------|-----------|
B|-3-3-3-3-|---------|---------|-----------|-3-3-3-3-|---------|---------|-----------|
G|-0-0-2-2-|-2-2-----|-2-------|-(2)-------|-0-0-2-2-|-2-2-----|-2-------|-(2)-------|
D|-----0-0-|-2-2-2-2-|-2-------|-(2)-------|-----0-0-|-2-2-2-2-|-2-------|-(2)-------|
A|---------|-0-0-2-2-|-0-------|-(0)-------|---------|-0-0-2-2-|-0-------|-(0)-------|
E|---------|-----0-0-|---------|-----------|---------|-----0-0-|---------|-----------|

  
   E E E E E E E E   E E E E E E E E   E E E E E E E E   E E E E E E E E

e|-----------------|-----------------|-----------------|-----------------|
B|-----------------|-----------------|-----------------|-----------------|
G|-4-4-4-4-4-4-4-4-|-4-4-4-4-4-4-4-4-|-7-7-7-7-7-7-7-7-|-7-7-7-7-7-7-7-7-|
D|-4-4-4-4-4-4-4-4-|-4-4-4-4-4-4-4-4-|-7-7-7-7-7-7-7-7-|-7-7-7-7-7-7-7-7-|
A|-2-2-2-2-2-2-2-2-|-2-2-2-2-2-2-2-2-|-5-5-5-5-5-5-5-5-|-5-5-5-5-5-5-5-5-|
E|-----------------|-----------------|-----------------|-----------------|


   E E E E E E E E   E E E E E E E E   E E E E E E E E   E E E E E E E E

e|-----------------|-----------------|-----------------|-----------------|
B|-----------------|-----------------|-----------------|-----------------|
G|-9-9-9-9-9-9-9-9-|-9-9-9-9-9-9-9-9-|-9-9-9-9-9-9-9-9-|-9-9-9-9-9-9-9-9-|
D|-9-9-9-9-9-9-9-9-|-9-9-9-9-9-9-9-9-|-9-9-9-9-9-9-9-9-|-9-9-9-9-9-9-9-9-|
A|-7-7-7-7-7-7-7-7-|-7-7-7-7-7-7-7-7-|-7-7-7-7-7-7-7-7-|-7-7-7-7-7-7-7-7-|
E|-----------------|-----------------|-----------------|-----------------|


   Q Q Q Q   Q Q Q Q   W         +W          Q Q Q Q   Q Q Q Q   W         +W
   
e|-3-3-----|---------|---------|-----------|-3-3-----|---------|---------|-----------|
B|-3-3-3-3-|---------|---------|-----------|-3-3-3-3-|---------|---------|-----------|
G|-0-0-2-2-|-2-2-----|-2-------|-(2)-------|-0-0-2-2-|-2-2-----|-2-------|-(2)-------|
D|-----0-0-|-2-2-2-2-|-2-------|-(2)-------|-----0-0-|-2-2-2-2-|-2-------|-(2)-------|
A|---------|-0-0-2-2-|-0-------|-(0)-------|---------|-0-0-2-2-|-0-------|-(0)-------|
E|---------|-----0-0-|---------|-----------|---------|-----0-0-|---------|-----------|


   W           +W

e|-----------|-------------|
B|-----------|-------------|
G|-2---------|-(2)---------|
D|-2---------|-(2)---------|
A|-0---------|-(0)---------|
E|-----------|-------------|


Verse 2


   E E E E E E E E   E E E E E E E E   E E E E E E E E   E E E E E E E E
   . . . . . . . .   . . . . . . . .   . . . . . . . .   . . . . . . . .
e|-----------------|-----------------|-----------------|-----------------|
B|-5---5---5---5---|-9---9---9---9---|-5---5---5---5---|-5---5---5---5---|
G|---6---6---6---6-|---9---9---9---9-|---6---6---6---6-|---6---6---6---6-|
D|-----------------|-----------------|-----------------|-----------------|
A|-----------------|-----------------|-----------------|-----------------|
E|-----------------|-----------------|-----------------|-----------------|
 |
 | 
 | E E E E E E E E   E E E E E E E E   E E E E E E E E   E E E E E E E E
 | . . . . . . . .   . . . . . . . .   . . . . . . . .   . . . . . . . .  
e|-----------------|-----------------|-----------------|-----------------|
B|-----------------|-----------------|-----------------|-----------------|
G|-----------------|-----------------|-----------------|-----------------|
D|-2-2-2-2-2-2-2-2-|-6-6-6-6-6-6-6-6-|-----------------|-----------------|
A|-0-0-0-0-0-0-0-0-|-4-4-4-4-4-4-4-4-|-4-4-4-4-4-4-4-4-|-4-4-4-4-4-4-4-4-|
E|-----------------|-----------------|-2-2-2-2-2-2-2-2-|-2-2-2-2-2-2-2-2-|


   E E E E E E E E   E E E E E E E E   E E E E   E  E E E   E E E E   E  E E E   
   . . . . . . . .   . . . . . . . .   . . . .   .  . . .   . . . .   .  . . .
e|-----------------|-----------------|--------------------|--------------------|
B|-7---7---7---7---|-9---9---9---9---|----------10-10-----|----------10-10-----|
G|---7---7---7---7-|---9---9---9---9-|-----9-9--------9-9-|-----9-9--------9-9-|
D|-----------------|-----------------|-7-7----------------|-7-7----------------|
A|-----------------|-----------------|--------------------|--------------------|
E|-----------------|-----------------|--------------------|--------------------|
 | 
 |
 | E E E E E E E E   E E E E E E E E   E E E E   E  E E E   E E E E   E  E E E
 | . . . . . . . .   . . . . . . . .   . . . .   .  . . .   . . . .   .  . . .
e|-----------------|-----------------|--------------------|--------------------|
B|-----------------|-----------------|--------------------|--------------------|
G|-----------------|-----9-----------|--------------------|--------------------|
D|-7-7-7-7-7-7-7-7-|-9-9-9-9-9-9-----|-2-2-2-2---2--2-2-2-|-2-2-2-2---2--2-2-2-|
A|-5-5-5-5-5-5-5-5-|-7-7-7-7-7-7-7\--|-0-0-0-0---0--0-0-0-|-0-0-0-0---0--0-0-0-|
E|-----------------|-----------------|--------------------|--------------------|


   E E E E E E E E   E E E E E E E E   E E E E E E E E   E E E E E E E E
   . . . . . . . .   . . . . . . . .   . . . . . . . .   . . . . . . . .
e|-----------------|-----------------|-----------------|-----------------|
B|-5---5---5---5---|-9---9---9---9---|-5---5---5---5---|-5---5---5---5---|
G|---6---6---6---6-|---9---9---9---9-|---6---6---6---6-|---6---6---6---6-|
D|-----------------|-----------------|-----------------|-----------------|
A|-----------------|-----------------|-----------------|-----------------|
E|-----------------|-----------------|-----------------|-----------------|
 |
 | 
 | E E E E E E E E   E E E E E E E E   E E E E E E E E   E E E E E E E E
 | . . . . . . . .   . . . . . . . .   . . . . . . . .   . . . . . . . .  
e|-----------------|-----------------|-----------------|-----------------|
B|-----------------|-----------------|-----------------|-----------------|
G|-----------------|-----------------|-----------------|-----------------|
D|-2-2-2-2-2-2-2-2-|-6-6-6-6-6-6-6-6-|-----------------|-----------------|
A|-0-0-0-0-0-0-0-0-|-4-4-4-4-4-4-4-4-|-4-4-4-4-4-4-4-4-|-4-4-4-4-4-4-4-4-|
E|-----------------|-----------------|-2-2-2-2-2-2-2-2-|-2-2-2-2-2-2-2-2-|


   E E E E E E E E   E E E E E E E E   E E E E   E  E E E   E E E E   E  E E E   
   . . . . . . . .   . . . . . . . .   . . . .   .  . . .   . . . .   .  . . .
e|-----------------|-----------------|--------------------|--------------------|
B|-7---7---7---7---|-9---9---9---9---|----------10-10-----|----------10-10-----|
G|---7---7---7---7-|---9---9---9---9-|-----9-9--------9-9-|-----9-9--------9-9-|
D|-----------------|-----------------|-7-7----------------|-7-7----------------|
A|-----------------|-----------------|--------------------|--------------------|
E|-----------------|-----------------|--------------------|--------------------|
 | 
 |
 | E E E E E E Q     E E E E E E Q     E E E E   E  E E E   E E E E   E  E E E   
 | . .   . . .       . .   . . .       . .   .   .    . .
e|-----------------|-----------------|--------------------|--------------------|
B|-----------------|-----------------|--------------------|--------------------|
G|-----7-----------|-----9-----------|-----2--------2-----|-2-2-2-2---2--2-2-2-|
D|-7-7-7-7-7-7-----|-9-9-9-9-9-9-----|-2-2-2-2---2--2-2-2-|-2-2-2-2---2--2-2-2-|
A|-5-5-5-5-5-5-5\/-|-7-7-7-7-7-7-7\--|-0-0-0-0---0--0-0-0-|-0-0-0-0---0--0-0-0-|
E|-----------------|-----------------|--------------------|--------------------|



Chorus 2


   Q Q Q Q   Q Q Q Q   W         +W          Q Q Q Q   Q Q Q Q   W         +W
   
e|-3-3-----|---------|---------|-----------|-3-3-----|---------|---------|-----------|
B|-3-3-3-3-|---------|---------|-----------|-3-3-3-3-|---------|---------|-----------|
G|-0-0-2-2-|-2-2-----|-2-------|-(2)-------|-0-0-2-2-|-2-2-----|-2-------|-(2)-------|
D|-----0-0-|-2-2-2-2-|-2-------|-(2)-------|-----0-0-|-2-2-2-2-|-2-------|-(2)-------|
A|---------|-0-0-2-2-|-0-------|-(0)-------|---------|-0-0-2-2-|-0-------|-(0)-------|
E|---------|-----0-0-|---------|-----------|---------|-----0-0-|---------|-----------|

  
   E E E E E E E E   E E E E E E E E   E E E E E E E E   E E E E E E E E

e|-----------------|-----------------|-----------------|-----------------|
B|-----------------|-----------------|-----------------|-----------------|
G|-4-4-4-4-4-4-4-4-|-4-4-4-4-4-4-4-4-|-7-7-7-7-7-7-7-7-|-7-7-7-7-7-7-7-7-|
D|-4-4-4-4-4-4-4-4-|-4-4-4-4-4-4-4-4-|-7-7-7-7-7-7-7-7-|-7-7-7-7-7-7-7-7-|
A|-2-2-2-2-2-2-2-2-|-2-2-2-2-2-2-2-2-|-5-5-5-5-5-5-5-5-|-5-5-5-5-5-5-5-5-|
E|-----------------|-----------------|-----------------|-----------------|


   E E E E E E E E   E E E E E E E E   E E E E E E E E   E E E E E E E E

e|-----------------|-----------------|-----------------|-----------------|
B|-----------------|-----------------|-----------------|-----------------|
G|-9-9-9-9-9-9-9-9-|-9-9-9-9-9-9-9-9-|-9-9-9-9-9-9-9-9-|-9-9-9-9-9-9-9-9-|
D|-9-9-9-9-9-9-9-9-|-9-9-9-9-9-9-9-9-|-9-9-9-9-9-9-9-9-|-9-9-9-9-9-9-9-9-|
A|-7-7-7-7-7-7-7-7-|-7-7-7-7-7-7-7-7-|-7-7-7-7-7-7-7-7-|-7-7-7-7-7-7-7-7-|
E|-----------------|-----------------|-----------------|-----------------|


   Q Q Q Q   Q Q Q Q   W         +W          Q Q Q Q   Q Q Q Q   W         +W
   
e|-3-3-----|---------|---------|-----------|-3-3-----|---------|---------|-----------|
B|-3-3-3-3-|---------|---------|-----------|-3-3-3-3-|---------|---------|-----------|
G|-0-0-2-2-|-2-2-----|-2-------|-(2)-------|-0-0-2-2-|-2-2-----|-2-------|-(2)-------|
D|-----0-0-|-2-2-2-2-|-2-------|-(2)-------|-----0-0-|-2-2-2-2-|-2-------|-(2)-------|
A|---------|-0-0-2-2-|-0-------|-(0)-------|---------|-0-0-2-2-|-0-------|-(0)-------|
E|---------|-----0-0-|---------|-----------|---------|-----0-0-|---------|-----------|



Bridge

   W           +W

e|-----------|-------------|-------------|-------------|-------------|-------------|
B|-----------|-------------|-------------|-------------|-------------|-------------|
G|-2---------|-(2)---------|-------------|-------------|-------------|-------------|
D|-2---------|-(2)---------|-------------|-------------|-------------|-------------|
A|-0---------|-(0)---------|-------------|-------------|-------------|-------------|
E|-----------|-------------|-------------|-------------|-------------|-------------|

e|-------------|-------------|-------------|-------------|
B|-------------|-------------|-------------|-------------|
G|-------------|-------------|-------------|-------------|
D|-------------|-------------|-------------|-------------|
A|-------------|-------------|-------------|-------------|
E|-------------|-------------|-------------|-------------|



Outro/Chorus


   Q Q Q Q   Q Q Q Q   Q Q Q Q   Q Q Q Q   E E E E E E E E   E E E E E E E E 
   
e|-3-3-----|---------|-3-3-----|---------|-3-3-3-3---------|-----------------|
B|-3-3-3-3-|---------|-3-3-3-3-|---------|-3-3-3-3-3-3-3-3-|-----------------|
G|-0-0-2-2-|-2-2-----|-0-0-2-2-|-2-2-----|-0-0-0-0-2-2-2-2-|-2-2-2-2---------|
D|-----0-0-|-2-2-2-2-|-----0-0-|-2-2-2-2-|---------0-0-0-0-|-2-2-2-2-2-2-2-2-|
A|---------|-0-0-2-2-|---------|-0-0-2-2-|-----------------|-0-0-0-0-2-2-2-2-|
E|---------|-----0-0-|---------|-----0-0-|-----------------|---------0-0-0-0-|

      
      3        3         3        3
   ___|___  ___|___   ___|___  ___|___
   Q  Q  Q  Q  Q  Q   Q  Q  Q  Q  Q  Q   W           +W            +W

e|-3--3--3----------|------------------|-----------|-------------|-------------|
B|-3--3--3--3--3--3-|------------------|-----------|-------------|-------------|
G|-0--0--0--2--2--2-|-2--2--2----------|-2---------|-(2)---------|-(2)---------|
D|----------0--0--0-|-2--2--2--2--2--2-|-2---------|-(2)---------|-(2)---------|
A|------------------|-0--0--0--2--2--2-|-0---------|-(0)---------|-(0)---------|
E|------------------|----------0--0--0-|-----------|-------------|-------------|


Добавлено: 10.04.2012
Другие материалы по этой песне:
  • Аккорды и текст

Страница создана 10.04.2012
http://primanota.ru/aquabats/poppin-a-wheelie-chords.htm
Привет, Гость.
Предлагаем пройти революционный курс по гитаре.
Подарок от PrimaNota.Ru, забирай!