PrimaNota.ru - самый крупный в мире бесплатный архив песенных текстов, аккордов, табулатур и нот


Aquabats - Look At Me Im A Winner - текст песни, таба, видео

Регистрация Запомнить меня
Войти через:  Facebook Google Twitter Vk Yandex Mail.ru

Aquabats - Look At Me Im A Winner - текст песни, таба, видео

Печатать
Просмотров: 161
i created this tab.  it can't be found on any other site.

standard tuning

Intro

E-----------|
B-----------|
g-9-9-------|
d-9-9--9-7--|
a-7-7--9-7--|4x
e------7-5--|

e-------------------|
b-------------------|
g-9--9-9--9-9--9--9-|
d-9--9-9--9-9--9--9-|
a-7--7-7--7-7--7--7-|     2x
e-------------------|

Verse
E--------------------------------------------------------------------|
B--------------------------------------------------------------------|
g---------------------------------------------------------------9----|
d-9-9-9-9-9-9-9-9-9-9-9-9-9-9-9-9-------------------7-7-7-7-8-9--9---|
a-7-7-7-7-7-7-7-7-7-7-7-7-7-7-7-7--7-7-7-7-7-7-7-7--5-5-5-5-6-7---7--|
e----------------------------------5-5-5-5-5-5-5-5-------------------|
PALM MUTED

e---------------------------------|---------------------------------|
b---------------------------------|---------------------------------|
g---------------------------------|-------------------------9---9---|play
d-9-9-9-9-9-9-9-9-9-9-9-9-9-9-9-9-|7-7-7-7-7-7-7-7------------9-----|only
a-7-7-7-7-7-7-7-7-7-7-7-7-7-7-7-7-|5-5-5-5-5-5-5-5-9-9-9-9----------|1st
e------------------------------x2-|----------------7-7-7-7----------|time
PALM MUTED

E-----------------------------------------|
B-----------------------------------------|
G-----------------------------------------|
D-11-11-11-11-11-11-11-11-10-10-10-10--9--|
A--9--9--9--9--9--9--9--9--8--8--8--8--7--|
E-----------------------------------------|

e-------------------|
b-------------------|
g-9--9-9--9-9--9--9-|
d-9--9-9--9-9--9--9-|
a-7--7-7--7-7--7--7-|     2x
e-------------------|

CHORUS

E-----------|
B-----------|
g-9-9-------|
d-9-9--9-7--|
a-7-7--9-7--|4x
e------7-5--|


e---------------------------------|
b---------------------------------|
g-9-9-9-9-9-9-9-9-----------------|
d-9-9-9-9-9-9-9-9-9-9-9-9-7-7-7-7-|
a-7-7-7-7-7-7-7-7-9-9-9-9-7-7-7-7-|     4x
e-----------------7-7-7-7-5-5-5-5-|

Verse
E--------------------------------------------------------------------|
B--------------------------------------------------------------------|
g---------------------------------------------------------------9----|
d-9-9-9-9-9-9-9-9-9-9-9-9-9-9-9-9-------------------7-7-7-7-8-9--9---|
a-7-7-7-7-7-7-7-7-7-7-7-7-7-7-7-7--7-7-7-7-7-7-7-7--5-5-5-5-6-7---7--|
e----------------------------------5-5-5-5-5-5-5-5-------------------|
PALM MUTED

e---------------------------------|---------------------------------|
b---------------------------------|---------------------------------|
g---------------------------------|-------------------------9---9---|play
d-9-9-9-9-9-9-9-9-9-9-9-9-9-9-9-9-|7-7-7-7-7-7-7-7------------9-----|only
a-7-7-7-7-7-7-7-7-7-7-7-7-7-7-7-7-|5-5-5-5-5-5-5-5-9-9-9-9----------|1st
e------------------------------x2-|----------------7-7-7-7----------|time
PALM MUTED

E-----------------------------------------|
B-----------------------------------------|
G-----------------------------------------|
D-11-11-11-11-11-11-11-11-10-10-10-10--9--|
A--9--9--9--9--9--9--9--9--8--8--8--8--7--|
E-----------------------------------------|

e-------------------|
b-------------------|
g-9--9-9--9-9--9--9-|
d-9--9-9--9-9--9--9-|
a-7--7-7--7-7--7--7-|     2x
e-------------------|


CHORUS

E-----------|
B-----------|
g-9-9-------|
d-9-9--9-7--|
a-7-7--9-7--|4x
e------7-5--|


e---------------------------------|
b---------------------------------|
g-9-9-9-9-9-9-9-9-----------------|
d-9-9-9-9-9-9-9-9-9-9-9-9-7-7-7-7-|
a-7-7-7-7-7-7-7-7-9-9-9-9-7-7-7-7-|     8x
e-----------------7-7-7-7-5-5-5-5-|


SOLO
--17-16-14-----14---------------------------------------|
-----------17-----17-15-14-----17-15-14-----15-14-------|
---------------------------------------16--------16-14--|
--------------------------------------------------------|
--------------------------------------------------------|
--------------------------------------------------------|

------------/14------16-19---16-19---16-19---16-19---16-19--|
----/14-/15--------17------17------17------17------17-------|
-/14--------------------------------------------------------|
------------------------------------------------------------|
------------------------------------------------------------|
------------------------------------------------------------|

----14-17---14-17---14-17---14-17--------------|
--15------15------15------15-------------------|
-----------------------------------------------|
-----------------------------------------------|
-----------------------------------------------|
-----------------------------------------------|

--17-16-14-----14--------------------------------------|
-----------17-----17-15-14---17-15-14-----15-14--------|
--------------------------------------16--------16-14--|
-------------------------------------------------------|
-------------------------------------------------------|
-------------------------------------------------------|

------------/14---------------------------------------------|
-----/14-/15------------------------------------------------|
--/14-----------9-9-9-9-9-9-9-9----------10-10-10-10---9----|
----------------9-9-9-9-9-9-9-9-4-4-4-4--10-10-10-10---9----|
----------------7-7-7-7-7-7-7-7-4-4-4-4---8--8--8--8---7----|
--------------------------------2-2-2-2---------------------|
e-----------------------------------------------------------|
b-----------------------------------------------------------|
g-9--9-9--9-9--9--9-----------------------------------------|
d-9--9-9--9-9--9--9-----------------------------------------|
a-7--7-7--7-7--7--7-----------------------------------------|     2x
e-----------------------------------------------------------|


CHORUS

E-----------|
B-----------|
g-9-9-------|
d-9-9--9-7--|
a-7-7--9-7--|4x
e------7-5--|


e---------------------------------|
b---------------------------------|
g-9-9-9-9-9-9-9-9-----------------|
d-9-9-9-9-9-9-9-9-9-9-9-9-7-7-7-7-|
a-7-7-7-7-7-7-7-7-9-9-9-9-7-7-7-7-|     8x
e-----------------7-7-7-7-5-5-5-5-|

E------|
B------|
G-9-9--|
D-9-9--|
A-7-7--|
E------|
Добавлено: 02.07.2012
Другие материалы по этой песне:
  • Аккорды и текст

Страница создана 02.07.2012
http://primanota.ru/aquabats/look-at-me-im-a-winner-chords.htm
Привет, Гость.
Предлагаем пройти революционный курс по гитаре.
Подарок от PrimaNota.Ru, забирай!