PrimaNota.ru - самый крупный в мире бесплатный архив песенных текстов, аккордов, табулатур и нот


Aquabats - Amino Man - текст песни, таба, видео

Регистрация Запомнить меня
Войти через:  Facebook Google Twitter Vk Yandex Mail.ru

Aquabats - Amino Man - текст песни, таба, видео

Печатать
Просмотров: 241
I LOVE THIS SONG! I'm surprised no one has tabbed this.

Intro (Just this little part)
e|---------------------------------------------------------------------------|
B|---------------------------------------------------------------------------|
G|---------------------------------------------------------------------------|
D|44-5~~55-7~~---------------------------------------------------------------|
A|22-3~~33-5~~---------------------------------------------------------------|
E|---------------------------------------------------------------------------|

Verse
e|---------------------------------------------------------------------------|
B|---------------------------------------------------------------------------|
G|---------------------------------------------------------------------------|
D|-----------------------------------------4-45~~5-57~~----------------------|
A|-----------------------------------------2-23~~3-35~~----------------------|
E|7-75b~9-97b~-----------7-75b~9-97b~----------------------------------------|

Chorus (Play this twice)
e|---------------------------------------------------------------------------|
B|---------------------------------------------------------------------------|
G|---------------------------------------------------------------------------|
D|----------------------------------------------44~5555-77-------------------|
A|22200022255222000222552220002225522200022255--22~3333-55-------------------|
E|---------------------------------------------------------------------------|

Hook
e|---------------------------------------------------------------------------|
B|---------------------------------------------------------------------------|
G|---------------------------------------------------------------------------|
D|5-5-7-7-55554444-5-5-7-7-55554444-5-5-7-7-55554444-5-5-7-7-55554444--------|
A|3-3-5-5-33332222-3-3-5-5-33332222-3-3-5-5-33332222-3-3-5-5-33332222--------|
E|---------------------------------------------------------------------------|

Outro (I'm not sure how many times you play this but if you listen to the song it's 
pretty easy to figure it out)
e|---------------------------------------------------------------------------|
B|---------------------------------------------------------------------------|
G|---------------------------------------------------------------------------|
D|5-45------5-45-7-67--------------------------------------------------------|
A|3-23-7-67-3-23-5-45--------------------------------------------------------|
E|-----5-45------------------------------------------------------------------|

Order:
Intro
Verse
Chorus
Verse
Chorus
Hook
Outro

************************************

| /   slide up
| \   slide down
| h   hammer-on
| p   pull-off
| ~   vibrato
| +   harmonic
| x   Mute note
| b   Bend
| pb  Pre-bend
| br  Bend release
| pbr Pre-bend release
| brb Bend release bend

************************************

So, like I said, you might want to listen to the song first, but other than that this is 
pretty easy. Hope you enjoy this tab! :)
Добавлено: 04.06.2013
Другие материалы по этой песне:
  • Аккорды и текст

Страница создана 06.05.2012
http://primanota.ru/aquabats/amino-man-chords.htm
Привет, Гость.
Предлагаем пройти революционный курс по гитаре.
Подарок от PrimaNota.Ru, забирай!