PrimaNota.ru - самый крупный в мире бесплатный архив песенных текстов, аккордов, табулатур и нот


Aqua Velvets - Guitar Noir - таба, видео

Регистрация Запомнить меня
Войти через:  Facebook Google Twitter Vk Yandex Mail.ru

Aqua Velvets - Guitar Noir - таба, видео

Печатать
Просмотров: 466
---------------------------------------------------------------------------------------------------------------
                                          Artist - Aqua Velvets 
                                         ***********************
                                           Song - Guitar Noir
                                          ********************
                                          Tabbed By - Ayreon77
                                         **********************
---------------------------------------------------------------------------------------------------------------
Tuning = Standard                            INSTRUMENTAL
                                            **************
p   = Pull Off
h   = Hammer On
b   = Bend
rb  = Release Bend
rbp = Release Bend Pulloff
br  = Bend Release
brp = Bend Release Pulloff
/   = Slide
UB  = Union Bend



        Em                                  Am                         Em         
e|---------0---0---------------------------|---0---0------------------|-----------|
B|-----------3---0---------s-----br--------|---1-3---1--0--------s----|-----------|
G|--------------------0-2-2\4----2--h--0-2-|--------------2-0-2-2\4---|---------0-|
D|------------------2---------2----0-2-----|------------------------2-|--h--0-2---|
A|---s-------------------------------------|-0------------------------|-0-2-------|
E|-14\---0---------------------------------|--------------------------|-----------|

   Bm            Am            G   Em  Bm          Bbm  Am          G   Em  G
e|-2--2-2--2-2-|-0--0-0--0-0-|-3-|-0-|-2-2--2-2-2-|-1-|-0--0--0-0-|-3-|-0-|------------------|
B|-3--3-3--3-3-|-1--1-1--1-1-|-0-|-0-|-3-3--3-3-3-|-2-|-1--1--1-1-|-0-|-0-|------------------|
G|-4--4-4--4-4-|-2--2-2--2-2-|-0-|-0-|-4-4--4-4-4-|-3-|-2--2--2-2-|-0-|-0-|------------------|
D|-4--4-4--4-4-|-2--2-2--2-2-|-0-|-2-|-4-4--4-4-4-|-3-|-2--2--2-2-|-0-|-2-|------------------|
A|-2--2-2--2-2-|-------------|-2-|-2-|-2-2--2-2-2-|-1-|-----------|-2-|-2-|-----2------------|
E|-2--2-2--2-2-|-------------|-3-|-0-|-2-2--2-2-2-|-1-|-----------|-3-|-0-|-0-3----3-2-1-1-0-|


-------------------------------------
00:41
  Em                                               Am                  Em              
                               p                                       s              
e|-7-7--6-6--7-7-|-7--7-6-5-3-5-3---|---------3---|-7-8-7-5-7-|-----5-5\6--5--6-5--p--|
B|---------------|----------------5-|--s--3-5---5-|-----------|-5-8---------------8-5-|
G|---------------|------------------|-2\4---------|-----------|-----------------------|
D|---------------|------------------|-------------|-----------|-----------------------|
A|---------------|------------------|-------------|-----------|-----------------------|
E|---------------|------------------|-------------|-----------|-----------------------|

  Bm          Bbm Am             G   Em           Bm            Bbm Am             G   Em G
e|-7--7-7--7-|-6-|-5--5-5--5-5-|-3-|-0--0-0--0-0-|-7--7-7--7-7-|-6-|-5--5-5--5-5-|-3-|-0-|------------------|
B|-7--7-7--7-|-6-|-5--5-5--5-5-|-3-|-0--0-0--0-0-|-7--7-7--7-7-|-6-|-5--5-5--5-5-|-3-|-0-|------------------|
G|-7--7-7--7-|-6-|-5--5-5--5-5-|-4-|-0--0-0--0-0-|-7--7-7--7-7-|-6-|-5--5-5--5-5-|-4-|-0-|------------------|
D|-9--9-9--9-|-8-|-7--7-7--7-7-|-5-|-2--2-2--2-2-|-9--9-9--9-9-|-8-|-7--7-7--7-7-|-5-|-2-|------------------|
A|-9--9-9--9-|-8-|-7--7-7--7-7-|-5-|-2--2-2--2-2-|-9--9-9--9-9-|-8-|-7--7-7--7-7-|-5-|-2-|-----2------------|
E|-7--7-7--7-|-6-|-5--5-5--5-5-|-3-|-0--0-0--0-0-|-7--7-7--7-7-|-6-|-5--5-5--5-5-|-3-|-0-|-0-3----3-2-1-1-0-|


-------------------------------------
01:14                                            2 guitars
  Em                                             heres.
    s
e|-3\12-|-12-12--11-11--11-12-|-12--12-11-11-12-|-12-11-------------------------|
B|------|---------------------|-----------------|-------12-10-8-10-8-10---8-----|
G|------|---------------------|-----------------|-----------------------9---9~~-|
D|------|---------------------|-----------------|-------------------------------|
A|------|---------------------|-----------------|-------------------------------|
E|------|---------------------|-----------------|-------------------------------|

   Am              Em                                 
e|-12-11-|-12-11-|-12--12-12-11--12-15-14-15~~~-|
B|-12-11-|-12-11-|------------------------------|
G|-13-12-|-13-12-|------------------------------|
D|-------|-------|------------------------------|
A|-------|-------|------------------------------|
E|-------|-------|------------------------------|

   Bm               Am                  G    Em  Bm            Bbm  Am          G    Em G
e|-14-14-------14-|-12-------14-------|-10-|-7-|-14----14-14-|-13-|-12--12----|-10-|-7-|------------------|
B|-15----15-------|-13-13-------13----|-11-|-8-|-15----15-15-|-14-|-13-----13-|-11-|-8-|------------------|
G|-16-------16----|-14----14-------14-|-12-|-9-|-16-16-16-16-|-15-|-14--------|-12-|-9-|------------------|
D|-16-------------|-14----------------|-12-|-9-|-16----16-16-|-15-|-14--------|-12-|-9-|------------------|
A|----------------|-------------------|----|---|-------------|----|-----------|----|---|-----2------------|
E|----------------|-------------------|----|---|-------------|----|-----------|----|---|-0-3----3-2-1-1-0-|


-------------------------------------
01:51
  Em                                         Am                            Em
e|----------------------|-------------------|-----------------------------|----------------|
B|--------------------b-|-------------------|-----------------------------|----------------|
G|-------------h--0-2-2-|------------p------|-----------------------------|----------br----|
D|-2-0-2-0----0-2-------|-2-0-2-0---2-0-----|----2-3-2-0-2--2-3-2-0-2-----|-----5-7--7-5---|
A|---------2------------|---------2-----2---|-0-----------------------2---|--------------7-|
E|----------------------|-----------------3-|---------------------------0-|-3-0------------|

   Bm               Am                 Em                       Bm            Am                 G   Em
e|-----------------|-------------------------------------------|-------------|-----------------|-3-|-0--0------|
B|----------h------|-------br----------------------------------|--------h----|--p--------------|-0-|-0---0-----|
G|-4-4-2---2-4-2---|-2-0-0-2-----------0---p------h-p-h-p-h-p--|-------2-4---|-2-0---0---------|-0-|-0----0----|
D|-------4-------4-|-----------h--0-2-----2-0-2--0-2-0-2-0-2-0-|-4-0-4-----4-|-----2---2--h--0-|-0-|-2-----2---|
A|-----------------|----------0-2------------------------------|-------------|-----------0-2---|-2-|-2------2--|
E|-----------------|-------------------------------------------|-------------|-----------------|-3-|-0-------0-|


-------------------------------------
02:24
  Bm                                                         Em
e|-----0-------------0--0----|-----0---------------0-------|-0-----0-----|---------0-----|
B|---3-----3-------3-----3---|---3-----3-------3-------3---|---0-----0---|-----0-----0---|
G|-4-----4---4---4--------4--|-4-----4---4---4---4---4---4-|-----0-----0-|---0---0-----0-|
D|-------------4-----------4-|-------------4---------------|-------------|-2-------------|
A|---------------------------|-----------------------------|-------------|---------------|
E|---------------------------|-----------------------------|-------------|---------------|

  Bm                           F#m       Em            
e|----------0-------|-------0-|---0-5---|-------7-----|
B|-----3--------3---|-----3-3-|-------7-|-----8---8---|
G|---4---4----4---4-|---4---4-|-4-------|---9-------9-|
D|-4----------------|-4-----4-|---------|-9-----------|
A|------------------|---------|---------|-------------|
E|------------------|---------|---------|-------------|

  Bm
e|---------0-------------0-----|---------0-------------0-----|---------0-------------0-----|
B|-----3-----3---3-----3---3---|-----3-----3---3-----3---3---|-----3-----3---3-----3---3---|
G|---4---4-----4-----4-------4-|---4---4-----4-----4-------4-|---4---4-----4-----4-------4-|
D|-4---------------4-----------|-4---------------4-----------|-4---------------4-----------|
A|-----------------------------|-----------------------------|-----------------------------|
E|-----------------------------|-----------------------------|-----------------------------|

  Em                          Bm                            F#m                   Em
e|-------0-------------0-----|---------0-------------0-----|-------------9-------|-------7-|
B|-----0---0---------0---0---|-----3-----3---3-----3---3---|-------10------10----|-----8---|
G|---0-------0-----0-------0-|---4---4-----4-----4-------4-|----11----11------11-|---9-----|
D|-2-----------2-2-----------|-4---------------4-----------|-11------------------|-9-------|
A|---------------------------|-----------------------------|---------------------|---------|
E|---------------------------|-----------------------------|---------------------|---------|

  Bm
e|---------0-------0-0-|
B|-----3-----3---3-3-3-|
G|---4---4-----4---4-4-|
D|-4---------------4-4-|
A|---------------------|
E|---------------------|


-------------------------------------
03:16
  Em
                                                 b  br
e|-----------------------|--------------10-10-|-10--10-7---------------|
B|-----------------10-10-|-11--11-12-12-------|----------10-8-10---8~~-|
G|-9-9--9-9--12-12-------|--------------------|------------------9-----|
D|-----------------------|--------------------|------------------------|
A|-----------------------|--------------------|------------------------|
E|-----------------------|--------------------|------------------------|

  Am                               Em                               Bm                     Am
e|-7-8-7----7-7-8-7----------------rb-----------|-------b---------|----------14----------|----------12----12-|
B|-------10---------10-8-10-8-10-8-10--8---10-8-|-10-8-10-10-8----|----15-------15----15-|----13-------------|
G|---------------------------------------9------|--------------10-|-16----16-------16----|-14----14----14----|
D|----------------------------------------------|-----------------|----------------------|-------------------|
A|----------------------------------------------|-----------------|----------------------|-------------------|
E|----------------------------------------------|-----------------|----------------------|-------------------|

    G   Em
e|-10-|-7-|
B|-11-|-8-|
G|-12-|-9-|
D|-12-|-9-|
A|----|---|
E|----|---|


-------------------------------------
03:42
   Em                               Am
  GUITAR 1 this could be a trem arm                  Em                      Bm      Am      G    Em Bm Am G Em 
e|-12~~~~~-19~~~~~-18~~~~~-11~~~~~-|-12~~~~~-18~~~~~-19-19~~~~~-15-15~~~~~-|-14-14-|-12-12-|-10-|-7-|----------|
B|---------------------------------|---------------------------------------|-15-15-|-13-13-|-11-|-8-|----------|
G|---------------------------------|---------------------------------------|-16-16-|-14-14-|-12-|-9-|----------|
D|---------------------------------|---------------------------------------|-16-16-|-14-14-|-12-|-9-|----------|
A|---------------------------------|---------------------------------------|-------|-------|----|---|----------|
E|---------------------------------|---------------------------------------|-------|-------|----|---|----------|
 |Em                                         Am                                Em                              |
 |GUITAR 2                                                                                           Bm Am G Em|
e|--------------------0-|-------------------|---------------------------------|----------|-----------|---------|
B|--------------------0-|-------------------|---------------1-----------------|---------0|-----------|---------|
G|----------0-3-2-0---0-|--------0---------0|---2--h----------2--------2------|---0------|-3---2---0-|---------|
D|-2---0-2----------2-2-|-2---2----2--h--0--|-----2-3-2---2-----2--2-2---2----|-----2----|---2---2---|---------|
A|---2----------------2-|---2--------0-2----|-0---------0------------------0-0|-------2--|-----------|---------|
E|--------------------0-|-------------------|---------------------------------|-0--------|-----------|---------|

04:05                                                                                              
  Em       Bm         Am         G    Em G                 Bm             Am             G    Em  
e|-0-----|-14-14-14-|-12-12-12-|-10-|-7-|----------------|-14--14-14-14-|-12--12-12-12-|-10-|-7-|
B|---0---|-15-15-15-|-13-13-13-|-11-|-8-|----------------|-15--15-15-15-|-13--13-13-13-|-11-|-8-|
G|-----0-|-16-16-16-|-14-14-14-|-12-|-9-|----------------|-16--16-16-16-|-14--14-14-14-|-12-|-9-|
D|-------|-16-16-16-|-14-14-14-|-12-|-9-|----------------|-16--16-16-16-|-14--14-14-14-|-12-|-9-|
A|-------|----------|----------|----|---|-----2----------|--------------|--------------|----|---|
E|-------|----------|----------|----|---|-0-3----3-2-1-0-|--------------|--------------|----|---|


e|-------12-|-----7-|
B|----12----|---8---|
G|-12-------|-9-----|
D|----------|-------|
A|----------|-------|
E|----------|-------|

ENJOY....
Добавлено: 28.06.2016
Другие материалы по этой песне:
  • Аккорды и текст

Страница создана 28.06.2016
http://primanota.ru/aqua-velvets/guitar-noir-chords.htm
Привет, Гость.
Предлагаем пройти революционный курс по гитаре.
Подарок от PrimaNota.Ru, забирай!