PrimaNota.ru - самый крупный в мире бесплатный архив песенных текстов, аккордов, табулатур и нот


Aqme - La Fin Des Temps - таба, видео

Регистрация Запомнить меня
Войти через:  Facebook Google Twitter Vk Yandex Mail.ru

Aqme - La Fin Des Temps - таба, видео

Печатать
Просмотров: 115
 Intro:

e ||----------------------------------------------|
b ||----------------------------------------------|
g ||--------14-14-13~-4-9~-------14-14-13~-4-7~---|
d ||---11~-------------------11~------------------|X4
a ||----------------------------------------------|
e ||----------------------------------------------|

 Couplet 1:

e ||-----------------------------------------------------------------------------|
b ||-----------------------------------------------------------------------------|
g ||-----------------------------------------------------------------------------|
d ||-----------------------------------------------------------------------------|X3
a ||---2-2-2-2-2-2-2-2--6-6-6-6--4-4--5-5---2-2-2-2-2-2-2-2--6-6-6-6--8-8--7-7---|
e ||---0-0-0-0-0-0-0-0--4-4-4-4--2-2--3-3---0-0-0-0-0-0-0-0--4-4-4-4--6-6--5-5---|

e ||----------------------------------------------|
b ||----------------------------------------------|
g ||--------14-14-13~-4-9~-------14-14-13~-4-7~---|
d ||---11~-------------------11~------------------|
a ||----------------------------------------------|
e ||----------------------------------------------|

 Refrain:

e ||---------------------------------------------------------------------------------------------------------------------|
b ||---------------------------------------------------------------------------------------------------------------------|
g ||--------3~-3-3-3------2~-2-2-2------3~-3-3-3------3~-3-3-3-------3~-3-3-3------2~-2-2-2-------3-3-3-3----------------|
d ||---3-3--3~-3-3-3-3-3--2~-2-2-2-2-2--3~-3-3-3-2-2--3~-3-3-3--3-3--3~-3-3-3-3-3--2~-2-2-2--2-2--3-3-3-3--2---2--2--2---|
a ||---3-3--1~-1-1-1-3-3--0~-0-0-0-2-2--1~-1-1-1-2-2--1~-1-1-1--3-3--1~-1-1-1-3-3--0~-0-0-0--2-2--1-1-1-1--2---2--2--2---|
e ||---1-1-----------1-1-----------0-0-----------0-0------------1-1-----------1-1------------0-0-----------0---0--0--0---|

 Pont1:

e ||----------------------------------------|
b ||----------------------------------------|
g ||--------------3-3-3---------------------|
d ||---4-4-4-4-4--3-3-3--2-2-2--5-5-5-5-5---|X4
a ||---4-4-4-4-4--1-1-1--2-2-2--5-5-5-5-5---|
e ||---2-2-2-2-2---------0-0-0--3-3-3-3-3---|

 Couplet 2:

e ||-----------------------------------------------------------------------------|
b ||-----------------------------------------------------------------------------|
g ||-----------------------------------------------------------------------------|
d ||---2-2-2-2-2-2-2-2--6-6-6-6--4-4--5-5---2-2-2-2-2-2-2-2--6-6-6-6--8-8--7-7---|X3
a ||---2-2-2-2-2-2-2-2--6-6-6-6--4-4--5-5---2-2-2-2-2-2-2-2--6-6-6-6--8-8--7-7---|
e ||---0-0-0-0-0-0-0-0--4-4-4-4--2-2--3-3---0-0-0-0-0-0-0-0--4-4-4-4--6-6--5-5---|

e ||----------------------------------------------|
b ||----------------------------------------------|
g ||--------14-14-13~-4-9~-------14-14-13~-4-7~---|
d ||---11~-------------------11~------------------|
a ||----------------------------------------------|
e ||----------------------------------------------|

 Refrain:

e ||-------------------------------------------------------------|
b ||-------------------------------------------------------------|
g ||--------3~-3-3-3------2~-2-2-2------3~-3-3-3------3~-3-3-3---|
d ||---3-3--3~-3-3-3-3-3--2~-2-2-2-2-2--3~-3-3-3-2-2--3~-3-3-3---|X2
a ||---3-3--1~-1-1-1-3-3--0~-0-0-0-2-2--1~-1-1-1-2-2--1~-1-1-1---|
e ||---1-1-----------1-1-----------0-0-----------0-0-------------|

 Pont 2:

e ||----------------------------------------------------------|
b ||----------------------------------------------------------|
g ||----------------------------------------------------------|
d ||-----2-----------------------------2----------------------|
a ||---3---3-2-2-3-0~---3-2~--2-3-5~------3-2-2-3-0~---3-2~---|
e ||----------------------------------------------------------|

e ||----------------------------------------------------------------------------------------------------------------|
b ||--------------------/(12)--------------------/(15)-15-15--(13)-13-15/(16)--------------------/(7)---(12)/(17)---|
g ||---5-5-5-5-5-2-2-2----------5-5-5-5-5-2-2-2---------------------------------5-5-5-5-5-2-2-2---------------------|
d ||---2-2-2-2-2-4-4-4----------2-2-2-2-2-4-4-4---------------------------------2-2-2-2-2-4-4-4---------------------|
a ||----------------------------------------------------------------------------------------------------------------|
e ||----------------------------------------------------------------------------------------------------------------|

 Refrain 3:

e ||-------------------------------------------------------------|
b ||-------------------------------------------------------------|
g ||--------3~-3-3-3------2~-2-2-2------3~-3-3-3------3~-3-3-3---|
d ||---3-3--3~-3-3-3-3-3--2~-2-2-2-2-2--3~-3-3-3-2-2--3~-3-3-3---|X2
a ||---3-3--1~-1-1-1-3-3--0~-0-0-0-2-2--1~-1-1-1-2-2--1~-1-1-1---|
e ||---1-1-----------1-1-----------0-0-----------0-0-------------|

 Fin: 

e ||-------------------------------------------------------------|
b ||-------------------------------------------------------------|
g ||--------2~-2-2-2------2~-2-2-2------3~-3-3-3------3~-3-3-3---|
d ||---3-3--2~-2-2-2-3-3--2~-2-2-2-2-2--3~-3-3-3-2-2--3~-3-3-3---|
a ||---3-3--0~-0-0-0-3-3--0~-0-0-0-2-2--1~-1-1-1-2-2--1~-1-1-1---|
e ||---1-1-----------1-1-----------0-0-----------0-0-------------|

e ||-------------------------------------------------------------------------------|
b ||-------------------------------------------------------------------------------|
g ||--------2~-2-2-2------2~-2-2-2------3~-3-3-3-----------------------------------|
d ||---3-3--2~-2-2-2-3-3--2~-2-2-2-2-2--3~-3-3-3-2~--2--2--2---2--2--2---2--2--2---|
a ||---3-3--0~-0-0-0-3-3--0~-0-0-0-2-2--1~-1-1-1-2~--2--2--2---2--2--2---2--2--2---|
e ||---1-1-----------1-1-----------0-0-----------0~--0--0--
Добавлено: 08.06.2012
Вам также может быть интересно:
Другие материалы по этой песне:
  • Аккорды и текст

Страница создана 08.06.2012
http://primanota.ru/aqme/la-fin-des-temps-chords.htm
Привет, Гость.
Предлагаем пройти революционный курс по гитаре.
Подарок от PrimaNota.Ru, забирай!