PrimaNota.ru - самый крупный в мире бесплатный архив песенных текстов, аккордов, табулатур и нот


Apulanta - Voimaa - таба, видео

Регистрация Запомнить меня
Войти через:  Facebook Google Twitter Vk Yandex Mail.ru

Apulanta - Voimaa - таба, видео

Печатать
Просмотров: 117
|---------------------------------------------|
|---------------------------------------------|
|---------------------------------------------| neljä kertaa
|---------------------------------------------|
|-7~---7~-7~-7~----7~-7~----7~-7~-6~-6~-6~-6~-|
|---------------------------------------------|

|---------------------------------------------|
|---------------------------------------------|
|---------------------------------------------| neljä kertaa
|---------------------------------------------|
|---------------------------------------------|
|-0----0--0-/12----0-/12----0-/12-11-11-11-11-|

  Em      A#      Gm
|-0---0---1-1-1-1-3---3---1-1-1-1-|
|-0---0---3-3-3-3-3---3---3-3-3-3-|
|-0---0---3-3-3-3-3---3---3-3-3-3-|
|-2---2---3-3-3-3-5---5---3-3-3-3-|
|-2---2---1-1-1-1-5---5---1-1-1-1-|
|-0-.-0-.---------3---3-----------|
Seepra ei koskaan pääse pakoon raitojaan

|---------------------------------------------|
|---------------------------------------------|
|---------------------------------------------| kaksi kertaa
|---------------------------------------------|
|---------------------------------------------|
|-0----0--0-/12----0-/12----0-/12-11-11-11-11-|

  Em      A#      Gm
|-0---0---1-1-1-1-3---3---1-1-1-1-|
|-0---0---3-3-3-3-3---3---3-3-3-3-|
|-0---0---3-3-3-3-3---3---3-3-3-3-|
|-2---2---3-3-3-3-5---5---3-3-3-3-|
|-2---2---1-1-1-1-5---5---1-1-1-1-|
|-0-.-0-.---------3---3-----------|
Heikot vangit eivät koskaan kaada aitojaan

|---------------------------------------------|
|---------------------------------------------|
|---------------------------------------------| kaksi kertaa
|---------------------------------------------|
|---------------------------------------------|
|-0----0--0-/12----0-/12----0-/12-11-11-11-11-|

|---------------------------------------------|
|---------------------------------------------|
|---------------------------------------------| neljä kertaa
|---------------------------------------------|
|-7~-7~----7~-7~----7~-7~---------------------|
|------------------------6~-6~---6~-6~---6~-6~|

|---------------------------------------------|
|---------------------------------------------|
|-0----0--0--0-----0--0-----0--0--8--8--8--8--| neljä kertaa
|-2----2--2--2-----2--2-----2--2--8--8--8--8--|
|-2----2--2--2-----2--2-----2--2--6--6--6--6--|
|-0----0--0--0-----0--0-----0--0--------------|
  Voimaa

|---------------------------------------------|
|---------------------------------------------|
|---------------------------------------------| neljä kertaa
|---------------------------------------------|
|---------------------------------------------|
|-0----0--0-/12----0-/12----0-/12-11-11-11-11-|

  Em      A#      Gm
|-0---0---1-1-1-1-3---3---1-1-1-1-|
|-0---0---3-3-3-3-3---3---3-3-3-3-|
|-0---0---3-3-3-3-3---3---3-3-3-3-|
|-2---2---3-3-3-3-5---5---3-3-3-3-|
|-2---2---1-1-1-1-5---5---1-1-1-1-|
|-0-.-0-.---------3---3-----------|
Valonsäteetkin voivat nahan päältä korventaa

|---------------------------------------------|
|---------------------------------------------|
|---------------------------------------------| kaksi kertaa
|---------------------------------------------|
|---------------------------------------------|
|-0----0--0-/12----0-/12----0-/12-11-11-11-11-|

  Em      A#      Gm
|-0---0---1-1-1-1-3---3---1-1-1-1-|
|-0---0---3-3-3-3-3---3---3-3-3-3-|
|-0---0---3-3-3-3-3---3---3-3-3-3-|
|-2---2---3-3-3-3-5---5---3-3-3-3-|
|-2---2---1-1-1-1-5---5---1-1-1-1-|
|-0-.-0-.---------3---3-----------|
Polttopisteessä on aina hiukan kuumempaa

|---------------------------------------------|
|---------------------------------------------|
|---------------------------------------------| kaksi kertaa
|---------------------------------------------|
|---------------------------------------------|
|-0----0--0-/12----0-/12----0-/12-11-11-11-11-|

|---------------------------------------------|
|---------------------------------------------|
|---------------------------------------------| neljä kertaa
|---------------------------------------------|
|-7~-7~----7~-7~----7~-7~---------------------|
|------------------------6~-6~---6~-6~---6~-6~|

|---------------------------------------------|
|---------------------------------------------|
|-0----0--0--0-----0--0-----0--0--8--8--8--8--| neljä kertaa
|-2----2--2--2-----2--2-----2--2--8--8--8--8--|
|-2----2--2--2-----2--2-----2--2--6--6--6--6--|
|-0----0--0--0-----0--0-----0--0--------------|
  Voimaa

|-----------------------------------------------------------------|
|-----------------------------------------------------------------|
|-9-9-9-9-9-9-9-9-10101010101010109-9-9-9-9-9-9-9-1010101010101010| kaksi kertaa
|-----------------------------------------------------------------|
|-7-7-7-7-7-7-7-7-8-8-8-8-8-8-8-8-7-7-7-7-7-7-7-7-8-8-8-8-8-8-8-8-|
|-----------------------------------------------------------------|

|-----------------------------------------------------------------|
|-9-9-9-9-9-9-9-9-10101010101010109-9-9-9-9-9-9-9-1010101010101010|
|-9-9-9-9-9-9-9-9-10101010101010109-9-9-9-9-9-9-9-1010101010101010|
|-----------------------------------------------------------------|
|-7-7-7-7-7-7-7-7-8-8-8-8-8-8-8-8-7-7-7-7-7-7-7-7-8-8-8-8-8-8-8-8-|
|-----------------------------------------------------------------|

|---------------------------------------------|
|---------------------------------------------|
|---------------------------------------------| neljä kertaa
|---------------------------------------------|
|-7~---7~-7~-7~----7~-7~----7~-7~-6~-6~-6~-6~-|
|---------------------------------------------|

|---------------------------------------------|
|---------------------------------------------|
|-0----0--0--0-----0--0-----0--0--8--8--8--8--| neljä kertaa
|-2----2--2--2-----2--2-----2--2--8--8--8--8--|
|-2----2--2--2-----2--2-----2--2--6--6--6--6--|
|-0----0--0--0-----0--0-----0--0--------------|
  Voimaa

|---------------------------------------------|
|---------------------------------------------|
|---------------------------------------------| neljä kertaa
|---------------------------------------------|
|---------------------------------------------|
|-0----0--0-/12----0-/12----0-/12-11-11-11-11-|

|---------------------------------------------|
|-9-------------------------------------------|
|-9-------------------------------------------|
|---------------------------------------------|
|-7-------------------------------------------|
|-0-------------------------------------------|
Добавлено: 22.07.2012
Другие материалы по этой песне:
  • Аккорды и текст

Страница создана 22.07.2012
http://primanota.ru/apulanta/voimaa-chords.htm
Привет, Гость.
Предлагаем пройти революционный курс по гитаре.
Подарок от PrimaNota.Ru, забирай!