PrimaNota.ru - самый крупный в мире бесплатный архив песенных текстов, аккордов, табулатур и нот


Apulanta - Turvallista Matkaa Helvetiin - таба, видео

Регистрация Запомнить меня
Войти через:  Facebook Google Twitter Vk Yandex Mail.ru

Apulanta - Turvallista Matkaa Helvetiin - таба, видео

Печатать
Просмотров: 125

----------------------------------|
|---------------------------------|
|-----9-------7-------------------|
|---9---9---7-------0-----0-------|
|/7-------5-------4---4-----4---4-|
|---------------5-------5-----5---|
  Olet niin kaunis
  pala Jumalaa
  rakkauden meri                   E            A
  tehty tulesta                    yeah
  olet niin kaunis ja tahtoisin
  löytää sen kaiken
  minkä kadotin
  olet niin kaunis
  ei ketään toista oo
  ei ole aikaa juosta pakoon

  E                  A
|------------------------------------------|
|--------------------------------7---------|
|-9--7--6-----------------6---9-----9--7---|
|----------9---7--6---7--------------------|
|------------------------------------------|
|------------------------------------------|
  Turvallista  matkaa helvetiin
  Turvallista  matkaa helvetiin
  E                  D     D    D
  Yeah      en tahdo mennä takaisin

|---------------------------------|
|---------------------------------|
|-----9-------7-------------------|
|---9---9---7-------0-----0-------|
|/7-------5-------4---4-----4---4-|
|---------------5-------5-----5---|
  Olet niin kaunis
  Mutta nukahtanut
  Niinkuin atlantis kerran
  Niin vajonnut

  E                  A
  Turvallista  matkaa helvetiin
  E                  A
  Turvallista  matkaa helvetiin
  E                  D     D    D
  Yeah      en tahdo mennä takaisin

|-------------------------------------------|
|-5b-5b-5b---5-5----------------------------|
|----------------7-5----5---5-7b8b7-5-------|
|-------------------------7-----------7-----|
|-------------------------------------------|
|-------------------------------------------|

|-12-12-12-12-10-10-10-10-17-17-17-17---------------------17-17-17-17-|
|-12-12-12-12-10-10-10-10-17-17-17-17---16b17--16b17---17-------------|
|---------------------------------------------------------------------|
|---------------------------------------------------------------------|
|---------------------------------------------------------------------|
|---------------------------------------------------------------------|

  E                  A
  Turvallista matkaa helvetiin
  E                  A
  Turvallista matkaa helvetiin
  E                  A
  Turvallista matkaa helvetiin
  E                  A
  Turvallista matkaa helvetiin
  E                  D     D    D
  Yeah      en tahdo mennä takaisin
  E                  A
  Turvallista matkaa helvetiin
  E                  A
  Turvallista matkaa helvetiin
  E                  A
  Turvallista matkaa helvetiin
  E                  A
  Turvallista matkaa helvetiin
  E                  D     D    D
  Yeah      en tahdo mennä takaisin
Добавлено: 07.05.2012
Другие материалы по этой песне:
  • Аккорды и текст

Страница создана 07.05.2012
http://primanota.ru/apulanta/turvallista-matkaa-helvetiin-chords.htm
Привет, Гость.
Предлагаем пройти революционный курс по гитаре.
Подарок от PrimaNota.Ru, забирай!