PrimaNota.ru - самый крупный в мире бесплатный архив песенных текстов, аккордов, табулатур и нот


Apulanta - Reunalla - текст песни, таба, видео

Регистрация Запомнить меня
Войти через:  Facebook Google Twitter Vk Yandex Mail.ru

Apulanta - Reunalla - текст песни, таба, видео

Печатать
Просмотров: 214
-------------------------------------------------------------------------------
                             Bring Me Down (Reunalla) by Apulanta
-------------------------------------------------------------------------------
Tabbed by: Ali Hong
Email: southparksaurez@gmail.com <-- email me with any comments or suggestions

Here's the entire song, off Transworld Snowboarding.  I listened to the English
version to figure this out, but I don't think the other one can be too far off.

NOTE: It's my first tab, be forgiving ;-)

Tuning: standard

Intro Part 1 -> Guitar 1

e|-----------|
B|--2-2-2-2--|
G|--5-5-5-5--|     Play
D|-----------|      x20
A|-----------|
E|-----------|

Intro Part 2 -> Guitar 1

e|--9---9-----9---9-----9---9---8--9--8-----------------------|
B|------------------------------------------------------------|
G|----6---------6---------6-----------------------------------|
D|------------------------------------------------------------|
A|------------------------------------------------------------|
E|------------------------------------------------------------|

e|--9---9-----9---9-----9---9-----21----------21--------------|
B|------------------------------------14--13------14--13--12--|
G|----6---------6---------6-----------------------------------|
D|------------------------------------------------------------|
A|------------------------------------------------------------|
E|------------------------------------------------------------|

^^ I'm not sure about the last part; I think the guitarist uses an effect to make
the C# on the 14th fret a couple octaves higher, but you can play it on the 25th
fret on the high E string if you really want to...

e|--9---9-----9---9-----9---9---8--9--8-----------------------|
B|------------------------------------------------------------|
G|----6---------6---------6-----------------------------------|
D|------------------------------------------------------------|
A|------------------------------------------------------------|
E|------------------------------------------------------------|

e|--9---9-----9---9-----9--8--8^------------------------------|
B|------------------------------------------------------------|
G|----6---------6---------------------------------------------|
D|------------------------------------------------------------|
A|------------------------------------------------------------|
E|------------------------------------------------------------|

Intro Part 2 -> Guitar 2

e|---------------------------------------------------------------------|
B|---------------------------------------------------------------------|
G|--3-3-3-3-6-6-6-6----------------3-3-3-3-6-6-6-6---------------------| Play
D|--3-3-3-3-6-6-6-6-6-6-6-4-4-4-4--3-3-3-3-6-6-6-6-6-6-6-3-4-4-4-------|  x2
A|--1-1-1-1-4-4-4-4-6-6-6-4-4-4-4--1-1-1-1-4-4-4-4-6-6-6-3-4-4-4-------|
E|------------------4-4-4-2-2-2-2------------------4-4-4-1-2-2-2-------|

Verse 1 -> No Guitar

Chorus -> Both Guitars

e|---------------------------------------------------------------------|
B|---------------------------------------------------------------------|
G|--3-3-3-3-6-6-6-6----------------3-3-3-3-6-6-6-6---------------------|
D|--3-3-3-3-6-6-6-6-6-6-6-4-4-4-4--3-3-3-3-6-6-6-6-6-6-6-3-4-4-4-------|
A|--1-1-1-1-4-4-4-4-6-6-6-4-4-4-4--1-1-1-1-4-4-4-4-6-6-6-3-4-4-4-------|
E|------------------4-4-4-2-2-2-2------------------4-4-4-1-2-2-2-------|

e|---------------------------------------------------------------------------|
B|---------------------------------------------------------------------------|
G|--3-3-3-3-6-6-6-6----------------3-3-3-3-6-6-6-6---------------------------|
D|--3-3-3-3-6-6-6-6-6-6-6-4-4-4-4--3-3-3-3-6-6-6-6-6-6-6-3-4-4-4-4-4-4-4-4-4-|
A|--1-1-1-1-4-4-4-4-6-6-6-4-4-4-4--1-1-1-1-4-4-4-4-6-6-6-3-4-4-4-4-4-4-4-4-4-|
E|------------------4-4-4-2-2-2-2------------------4-4-4-1-2-2-2-2-2-2-2-2-2-|

After the first guitar has played the last cord 5 or 6 times I think that the second
guitar plays the opening cord and lets it ring until the the end of the chorus

Verse 2 -> No Guitar

Prechorus ->

e|-----------|
B|--2-2-2-2--|
G|--5-5-5-5--|           Play this part
D|-----------|             four times
A|-----------|
E|-----------|

Chorus -> Both Guitars

e|---------------------------------------------------------------------|
B|---------------------------------------------------------------------|
G|--3-3-3-3-6-6-6-6----------------3-3-3-3-6-6-6-6---------------------|
D|--3-3-3-3-6-6-6-6-6-6-6-4-4-4-4--3-3-3-3-6-6-6-6-6-6-6-3-4-4-4-------|
A|--1-1-1-1-4-4-4-4-6-6-6-4-4-4-4--1-1-1-1-4-4-4-4-6-6-6-3-4-4-4-------|
E|------------------4-4-4-2-2-2-2------------------4-4-4-1-2-2-2-------|

e|---------------------------------------------------------------------------|
B|---------------------------------------------------------------------------|
G|--3-3-3-3-6-6-6-6----------------3-3-3-3-6-6-6-6---------------------------|
D|--3-3-3-3-6-6-6-6-6-6-6-4-4-4-4--3-3-3-3-6-6-6-6-6-6-6-3-4-4-4-4-4-4-4-4-4-|
A|--1-1-1-1-4-4-4-4-6-6-6-4-4-4-4--1-1-1-1-4-4-4-4-6-6-6-3-4-4-4-4-4-4-4-4-4-|
E|------------------4-4-4-2-2-2-2------------------4-4-4-1-2-2-2-2-2-2-2-2-2-|

Bridge ->

Play the opening chord, let it ring the whole time, and get as much feedback as
possible

Chorus ->

e|---------------------------------------------------------------------|
B|---------------------------------------------------------------------|
G|--3-3-3-3-6-6-6-6----------------3-3-3-3-6-6-6-6---------------------| Play
D|--3-3-3-3-6-6-6-6-6-6-6-4-4-4-4--3-3-3-3-6-6-6-6-6-6-6-3-4-4-4-------|  x4
A|--1-1-1-1-4-4-4-4-6-6-6-4-4-4-4--1-1-1-1-4-4-4-4-6-6-6-3-4-4-4-------|
E|------------------4-4-4-2-2-2-2------------------4-4-4-1-2-2-2-------|

Let the last cord ring the fourth time




| /  slide up
| \  slide down
| h  hammer-on
| p  pull-off
| ~  vibrato
| +  harmonic
| x  Mute note
| ^  Bend
===============================================================================
Добавлено: 30.04.2012
Другие материалы по этой песне:
  • Аккорды и текст

Страница создана 30.04.2012
http://primanota.ru/apulanta/reunalla-chords.htm
Привет, Гость.
Предлагаем пройти революционный курс по гитаре.
Подарок от PrimaNota.Ru, забирай!