PrimaNota.ru - самый крупный в мире бесплатный архив песенных текстов, аккордов, табулатур и нот


Apulanta - Mit Kuuluu - текст песни, таба, видео

Регистрация Запомнить меня
Войти через:  Facebook Google Twitter Vk Yandex Mail.ru

Apulanta - Mit Kuuluu - текст песни, таба, видео

Печатать
Просмотров: 182
Уроки эстрадного вокала в Санкт-Петербурге
the drums starts first.then he starts to sing hey hey mitä and then the guitar starts.


------------------------------------------|
------------------------------------------|
-----------------3-3-3--------------------|
---5-5-5--1-1-1--3-3-3-3-3-3--------------|
---5-5-5--1-1-1--5-5-5-3-3-3--------------|
---7-7-7--3-3-3--------5-5-5--------------|


verse
---00000030-------------------------------|
---------------1111-0000------------------|

chorus
------------------------------------------|
------------------------------------------|
-----------------3-3-3--------------------|
---5-5-5--1-1-1--3-3-3-3-3-3--------------|
---5-5-5--1-1-1--5-5-5-3-3-3--------------|
---7-7-7--3-3-3--------5-5-5--------------|

after half of the second verse they start to do the chords.

--------------------------------------------------------------|
--------------------------------------------------------------|
----------------1-1-1-1-1-1-----------------------------------|
----2-2-2-2-2-2--2-2-2-2-2-2----5-5-5-5-5-5----2-2-2-2-2-2----|
----2-2-2-2-2-2--2-2-2-2-2-2----5-5-5-5-5-5----2-2-2-2-2-2----|
----0-0-0-0-0-0--0-0-0-0-0-0----3-3-3-3-3-3----0-0-0-0-0-0----|

chorus

aaaaaaaaaaaaaaaaaaaaaaaahhhhhhhhhhhhhh
--------------------------------------------------------------|
--------------------------------------------------------------|
--------------------------------------------------------------|
--5----8---5---1-3--------------------------------------------|
--5----8---5---1-3--------------------------------------------|
--7----10--7---3-5--------------------------------------------|


chorus

the end

kurt cobain from sweden
Добавлено: 09.06.2012
Другие материалы по этой песне:
  • Аккорды и текст

Страница создана 09.06.2012
http://primanota.ru/apulanta/mit-kuuluu-chords.htm
Привет, Гость.
Предлагаем пройти революционный курс по гитаре.
Подарок от PrimaNota.Ru, забирай!