PrimaNota.ru - самый крупный в мире бесплатный архив песенных текстов, аккордов, табулатур и нот


April Wine - Drop Your Guns - текст песни, таба, видео

Регистрация Запомнить меня
Войти через:  Facebook Google Twitter Vk Yandex Mail.ru

April Wine - Drop Your Guns - текст песни, таба, видео

Печатать
Просмотров: 114
Авторы: David Henman

Intro:

|----------|----------|----------|----------|
|-------7\-|-------7\-|-------7\-|-------7\-|
|-2-2---7\-|-2-2---7\-|-2-2---7\-|-2-2---7\-|
|-2-2---7\-|-2-2---7\-|-2-2---7\-|-2-2---7\-|
|-0-0-0----|-0-0-0----|-0-0-0----|-0-0-0----|
|----------|----------|----------|----------|


Verse 1:

Asus2                        G
Look at all the places we ve been 

and look where we are

|----------|----------|
|-------7\-|-------7\-|
|-2-2---7\-|-2-2---7\-|
|-2-2---7\-|-2-2---7\-|
|-0-0-0----|-0-0-0----|
|----------|----------|

Asus2                             G
Something is amiss here, cause we never seem

to get very far

|----------|----------|
|-------7\-|-------7\-|
|-2-2---7\-|-2-2---7\-|
|-2-2---7\-|-2-2---7\-|
|-0-0-0----|-0-0-0----|
|----------|----------|

Asus2                  D
Now I got a feeling, a plan

some music to sing

|----------|----------|
|-------7\-|-------7\-|
|-2-2---7\-|-2-2---7\-|
|-2-2---7\-|-2-2---7\-|
|-0-0-0----|-0-0-0----|
|----------|----------|

Asus2                              D
I m looking for the right words to convey

the message we bring

|---0------------------|
|---0------------------|
|---1------------------|
|---2------------------|
|----------------------|
|-0---0-2-3--2-3-2-3-2-|
             If you can hear it

|---0------------------|
|---0------------------|
|---1------------------|
|---2------------------|
|----------------------|
|-0---0-2-3--2-3-2-3-2-|
        Mmm  I m gettin near it

|---0------------------|
|---0------------------|
|---1------------------|
|---2------------------|
|----------------------|
|-0---0-2-3--2-3-2-3-2-|
             If I can say it


Chorus:

A              G   D
Drop Your Guns,
                               G  A
and raise your hands in the air

A              G   D
You re the one
                                       G   A
Who started all that trouble back there


|----------|----------|----------|----|
|-------7\-|-------7\-|-------7\-|-2/-|
|-2-2---7\-|-2-2---7\-|-2-2---7\-|-2/-|
|-2-2---7\-|-2-2---7\-|-2-2---7\-|-2/-|
|-0-0-0----|-0-0-0----|-0-0-0----|----|
|----------|----------|----------|----|


Verse 2:

Asus2                    G
Grease me, I m near you, blast me,

I m in your way

|----------|----------|
|-------7\-|-------7\-|
|-2-2---7\-|-2-2---7\-|
|-2-2---7\-|-2-2---7\-|
|-0-0-0----|-0-0-0----|
|----------|----------|

Asus2                            G
You re the thing in a song, that really

ought to be put away

|----------|----------|
|-------7\-|-------7\-|
|-2-2---7\-|-2-2---7\-|
|-2-2---7\-|-2-2---7\-|
|-0-0-0----|-0-0-0----|
|----------|----------|

Asus2                  D
Now I got a feeling, a plan

some music to sing

|----------|----------|
|-------7\-|-------7\-|
|-2-2---7\-|-2-2---7\-|
|-2-2---7\-|-2-2---7\-|
|-0-0-0----|-0-0-0----|
|----------|----------|

Asus2                                  D
And I m looking for the right words to convey

the message we bring


|---0------------------|
|---0------------------|
|---1------------------|
|---2------------------|
|----------------------|
|-0---0-2-3--2-3-2-3-2-|
             If you can hear it

|---0------------------|
|---0------------------|
|---1------------------|
|---2------------------|
|----------------------|
|-0---0-2-3--2-3-2-3-2-|
             I m gettin near it

|---0------------------|
|---0------------------|
|---1------------------|
|---2------------------|
|----------------------|
|-0---0-2-3--2-3-2-3-2-|
             If I can say it

A              G   D
Drop Your Guns,
                              G  A
and raise your hands in the air


Instrumental:

Bass riff with a guitar solo (Play Asus2 chord)


Outro:

A              G   D
Drop Your Guns,
                              G  A
and raise your hands in the air

A              G   D
Drop Your Guns,
                              G  A
and raise your hands in the air

A              G   D
Drop Your Guns,
                              G  A
and raise your hands in the air

A              G   D
Drop Your Guns,
                              G  A
and raise your hands in the air

Добавлено: 03.06.2013
Другие материалы по этой песне:
  • Аккорды и текст

Страница создана 23.02.2012
http://primanota.ru/april-wine/drop-your-guns-chords.htm
Привет, Гость.
Предлагаем пройти революционный курс по гитаре.
Подарок от PrimaNota.Ru, забирай!