PrimaNota.ru - самый крупный в мире бесплатный архив песенных текстов, аккордов, табулатур и нот


April March - Laisse Tomber Les Filles - таба, видео

Регистрация Запомнить меня
Войти через:  Facebook Google Twitter Vk Yandex Mail.ru

April March - Laisse Tomber Les Filles - таба, видео

Печатать
Просмотров: 198
Artist: April March   http://64.207.140.38/
Track: Laisse Tomber Les Filles
Tabber: Woodshed


Em  xx9987
Bm xx9777
Am xx7555
G  355433
Em (middle 8) 022000
C  x3555x
Bm (middle 8) x24432



Em
Laisse tomber les filles, laisse tomber les filles

B                             Em
Un jour c'est toi qu'on laissera

Em
Laisse tomber les filles, laisse tomber les filles

B                           Em
Un jour c'est toi qui pleureras


Am                           Em                      B
Oui j'ai pleuré mais ce jour-là, Non je ne pleurerai pas
 
                    Em
Non je ne pleurerai pas


Am                            Em                        B
Je dirai c'est bien fait pour toi, Je dirai ça t'apprendra

                     Em
Je dirai ça t'apprendra


e|-------------------------------------------------------------------------|
B|-------------------------------------------------------------------------|
G|-------------------------------------------------------------------------|
D|-------------------------------------------------------------------------|
A|----------0-1-2-1-2-----------0-1-2-1-2----------------------------------|
E|---0-0-3---------------0-0-3---------------------------------------------|
     Laisse tomber les filles, laisse tomber les filles

e|-------------------------------------------------------------------------|
B|-------------------------------------------------------------------------|
G|-------------------------------------------------------------------------|
D|-------0---4-4-2-0-------------------------------------------------------|
A|---2-2---2-----------------------0-1-2-1-2-------------------------------|
E|--------------------------0-0-3------------------------------------------|
    Ça te jouera un mauvais tour

e|-------------------------------------------------------------------------|
B|-------------------------------------------------------------------------|
G|-------------------------------------------------------------------------|
D|-------------------------------------------------------------------------|
A|----------0-1-2-1-2------------0-1-2-1-2---------------------------------|
E|---0-0-3----------------0-0-3--------------------------------------------|
    Laisse tomber les filles. laisse tomber les filles

e|-------------------------------------------------------------------------|
B|-------------------------------------------------------------------------|
G|-------------------------------------------------------------------------|
D|-------0---4-4-2-0-------------------------------------------------------|
A|---2-2---2-------------------------0-1-2-1-2-----------------------------|
E|-----------------------------0-0-3---------------------------------------|
Tu le paieras un de ces jours

e|-------------------------------------------------------------------------|
B|-------------------------------------------------------------------------|
G|-------------------------------------------------------------------------|
D|-----------0-1-2-1-0-----------------------------------------------------|
A|----0-0-3----------------------------0-1-2-1-0---------------------------|
E|------------------------------0-0-3--------------------------------------|
On ne joue pas impunément, Avec un coeur innocent

e|-------------------------------------------------------------------------|
B|-------------------------------------------------------------------------|
G|-------------------------------------------------------------------------|
D|-------0---4-4-2-0-------------------------------------------------------|
A|---2-2---2-------------------------0-1-2-1-2-----------------------------|
E|-----------------------------0-0-3---------------------------------------|
Avec un coeur innocent

e|-------------------------------------------------------------------------|
B|-------------------------------------------------------------------------|
G|-------------------------------------------------------------------------|
D|------------0-1-2-1-0----------------------------------------------------|
A|----0-0-3----------------------------0-1-2-1-0---------------------------|
E|-----------------------------0-0-3---------------------------------------|
Tu verras ce que je ressens, Avant qu'il ne soit longtemps

e|-------------------------------------------------------------------------|
B|-------------------------------------------------------------------------|
G|-------------------------------------------------------------------------|
D|-------0---4-4-2-0-------------------------------------------------------|
A|---2-2---2-------------------------0-1-2-1-2-----------------------------|
E|---------------------------0-0-3-----------------------------------------|
Avant qu'il ne soit longtemps


MIDDLE 8

G
La chance abandonne

Em
Celui qui ne sait

G               C          G
Que laisser les coeurs blessés

G          C     
Tu n'auras personne


Bm      Em
Pour te consoler

G             Bm     Em
Tu ne l'auras pas volé


e|-------------------------------------------------------------------------|
B|-------------------------------------------------------------------------|
G|-------------------------------------------------------------------------|
D|-------------------------------------------------------------------------|
A|----------0--1-2-1-2-----------0-1-2-1-2---------------------------------|
E|---0-0-3----------------0-0-3--------------------------------------------|
Laisse tomber les filles, laisse tomber les filles

e|-------------------------------------------------------------------------|
B|-------------------------------------------------------------------------|
G|-------------------------------------------------------------------------|
D|-------0---4-4-2-0-------------------------------------------------------|
A|---2-2---2-------------------------0-1-2-1-2-----------------------------|
E|---------------------------0-0-3-----------------------------------------|
Un jour c'est toi qu'on laissera

e|-------------------------------------------------------------------------|
B|-------------------------------------------------------------------------|
G|-------------------------------------------------------------------------|
D|-------------------------------------------------------------------------|
A|----------0--1-2-1-2-----------0-1-2-1-2---------------------------------|
E|---0-0-3----------------0-0-3--------------------------------------------|
Laisse tomber les filles, laisse tomber les filles

e|-------------------------------------------------------------------------|
B|-------------------------------------------------------------------------|
G|-------------------------------------------------------------------------|
D|-------0---4-4-2-0-------------------------------------------------------|
A|---2-2---2-------------------------0-1-2-1-2-----------------------------|
E|--------------------------0-0-3------------------------------------------|
Un jour c'est toi qui pleureras

e|-------------------------------------------------------------------------|
B|-------------------------------------------------------------------------|
G|-------------------------------------------------------------------------|
D|------------0-1-2-1-0----------------------------------------------------|
A|----0-0-3----------------------------0-1-2-1-0---------------------------|
E|----------------------------0-0-3----------------------------------------|
Non pour te plaindre il n'y aura, Personne d'autre que toi

e|-------------------------------------------------------------------------|
B|-------------------------------------------------------------------------|
G|-------------------------------------------------------------------------|
D|-------0---4-4-2-0-------------------------------------------------------|
A|---2-2---2-------------------------0-1-2-1-2-----------------------------|
E|--------------------------0-0-3------------------------------------------|
Personne d'autre que toi

e|-------------------------------------------------------------------------|
B|-------------------------------------------------------------------------|
G|-------------------------------------------------------------------------|
D|-----------0-1-2-1-0-----------------------------------------------------|
A|----0-0-3----------------------------0-1-2-1-0---------------------------|
E|------------------------------0-0-3--------------------------------------|
Alors tu te rappelleras, Tout ce que je te dis là

e|-------------------------------------------------------------------------|
B|-------------------------------------------------------------------------|
G|-------------------------------------------------------------------------|
D|-------0---4-4-2-0-------------------------------------------------------|
A|---2-2---2-------------------------0-1-2-1-2-----------------------------|
E|--------------------------0-0-3------------------------------------------|
Tout ce que je te dis là

e|-------------------------------------------------------------------------|
B|-------------------------------------------------------------------------|
G|-------------------------------------------------------------------------|
D|-------------0-1-2-1-0---------------------------------------------------|
A|----0-0-3----------------------------0-1-2-1-0---------------------------|
E|-----------------------------0-0-3---------------------------------------|
Alors tu te rappelleras, Tout ce que je te dis là

e|-------------------------------------------------------------------------|
B|-------------------------------------------------------------------------|
G|-------------------------------------------------------------------------|
D|-------0---4-4-2-0-------------------------------------------------------|
A|---2-2---2-------------------------0-1-2-1-2-----------------------------|
E|--------------------------0-0-3------------------------------------------|
Tout ce que je te dis là

e|-------------------------------------------------------------------------|
B|-------------------------------------------------------------------------|
G|-------------------------------------------------------------------------|
D|------------0-1-2-1-0----------------------------------------------------|
A|----0-0-3----------------------------0-1-2-1-0---------------------------|
E|------------------------------0-0-3--------------------------------------|
Alors tu te rappelleras, Tout ce que je te dis là

e|-------------------------------------------------------------------------|
B|-------------------------------------------------------------------------|
G|-------------------------------------------------------------------------|
D|-------0---4-4-2-0-------------------------------------------------------|
A|---2-2---2-------------------------0-1-2-1-2-----------------------------|
E|--------------------------0-0-3------------------------------------------|
Tout ce que je te dis là

e|-------------------------------------------------------------------------|
B|-------------------------------------------------------------------------|
G|-------------------------------------------------------------------------|
D|------------0-1-2-1-0----------------------------------------------------|
A|----0-0-3----------------------------0-1-2-1-0---------------------------|
E|------------------------------0-0-3--------------------------------------|
Alors tu te rappelleras, Tout ce que je te dis là

e|-------------------------------------------------------------------------|
B|-------------------------------------------------------------------------|
G|-------------------------------------------------------------------------|
D|--------0----4-4-2-0-----------------------------------------------------|
A|---2-2---2-------------------------0-1-2-1-2-----------------------------|
E|-----------------------------0-0-3---------------------------------------|
Tout ce que je te dis là
Добавлено: 19.05.2012
Вам также может быть интересно:
Другие материалы по этой песне:
  • Аккорды и текст

Страница создана 19.05.2012
http://primanota.ru/april-march/laisse-tomber-les-filles-chords.htm
Привет, Гость.
Предлагаем пройти революционный курс по гитаре.
Подарок от PrimaNota.Ru, забирай!