PrimaNota.ru - самый крупный в мире бесплатный архив песенных текстов, аккордов, табулатур и нот


Appleseed Cast - Sunlit Ascending - таба, видео

Регистрация Запомнить меня
Войти через:  Facebook Google Twitter Vk Yandex Mail.ru

Appleseed Cast - Sunlit Ascending - таба, видео

Печатать
Просмотров: 117
-----------------------------------------------------------
           Sunlit Ascending - The Appleseed Cast
-----------------------------------------------------------
Tabbed by: Matty C
Email: Happyquakiduck@msn.com

Tuning: Standard EADGBE

The guitarist does a little bit of tremolo picking while using a delay pedal
*Intro*
e|--------------------------------------------------------------|
B|--------------------------------------------------------------|
G|--------------------------------------------------------------|
D|--------------------------------------------------------------|
A|-99999999--77777777-------------------------------------------|
E|---------------------77777777--33333333-----------------------|

*Main riff* Utilize delay
e|--------------------------------------------------------------|
B|--------------------------------------------------------------|
G|-14-14--12-12--11-11--9--9h11---------------------------------|
D|-12-12--12-12--12-12--12-12-----------------------------------|
A|--------------------------------------------------------------|
E|--------------------------------------------------------------|

The chords played under the riff are D, Em, Bm, G
e|--5555/7777-7777\3333-----------------------------------------|
B|--7777/8888-7777\3333-----------------------------------------|
G|--7777/9999-7777\4444-----------------------------------------|
D|--7777/9999-9999\5555-----------------------------------------|
A|--5555/7777-9999\5555-----------------------------------------|
E|------------7777\3333-----------------------------------------|


*Overlying riff* With plenty of delay
e|--------------------------------------------------------------|
B|--15-15-15-15--14-14-14-14--12-12-12-12--10-10-10-10----------|
G|--------------------------------------------------------------|
D|--------------------------------------------------------------|
A|--------------------------------------------------------------|
E|--------------------------------------------------------------|

*Verse*
e|--------------------------------------------------------------|
B|--------------------------------------------------------------|
G|---11~---9~----7~---6~----9~---7~---6~---4~-------------------|
D|-7-----5-----4----2-----5----4----2----0----------------------|
A|--------------------------------------------------------------|
E|--------------------------------------------------------------|

Chorus is just the chords with the main riff over top

*Bridge*
e|--------------------------------------------------------------|
B|--------------------------------------------------------------|
G|--------------------------------------------------------------|
D|--------------------------------------------------------------|
A|--------5--------7-------9-------7----------------------------|
E|--3-3-3----5-5-5---7-7-7---5-5-5------------------------------|

Then the band rocks out over top of Bm and G
Finish with the chorus riff and end on D

Questions, comments, compliments, or corrections go to Happyquakiduck@msn.com

Matty C <3
Добавлено: 08.04.2012
Другие материалы по этой песне:
  • Аккорды и текст

Страница создана 08.04.2012
http://primanota.ru/appleseed-cast/sunlit-ascending-chords.htm
Привет, Гость.
Предлагаем пройти революционный курс по гитаре.
Подарок от PrimaNota.Ru, забирай!