PrimaNota.ru - самый крупный в мире бесплатный архив песенных текстов, аккордов, табулатур и нот


Appleseed Cast - Secret - текст песни, бас-таба, видео

Регистрация Запомнить меня
Войти через:  Facebook Google Twitter Vk Yandex Mail.ru

Appleseed Cast - Secret - текст песни, бас-таба, видео

Печатать
Просмотров: 124
-------------------------------------------------------
         The Appleseed Cast - Secret
-------------------------------------------------------
From 'Mare Vitalis'

Tabbed by Jimbob107
email: erevain90@hotmail.com
Drop-D tuning.

* Let Ring
/ Slide Up
 Slide Down

0.07

g ----------------------------------------------------|
d ----------------------------------------------------|
a ----------------------------------------------------|
d ---5*-----7*-----9*-----11*--12*--------------------|

0.45

g ----------------------------------------------------|
d ----------------------------------------------------|
a ----------------------------------------------------|
d ----55*------77*-----99*-----11*--12*---------------|

1.09

g -----------------------------------------------------|
d -----------------------------------------------------|
a -----------------------------------------------------|
d ---5555-7777-9999-11111212---------------------------|

                    (These notes are doubles)
1.34

g ----------------------------------------------------|
d ----------------------------------------------------|
a -----5*--------------54*----------------------------|
d ---5-------------2-5--------------------------------|

1.40

g --------------------------------|
d --------------------------------|
a --------------------------------|
d ---55555/1212121212-12-11-9-----|

2.02

g ---------------------------------------|
d ---------------------------------------|
a ---------------------------------------|
d ---5*-----12*-----11*-----9-7*---------|

2.24

g ----------------------------------------------------|
d ----------------------------------------------------|
a ----------------------------------------------------|
d ----5555555577777777999999991111111112121212--------|

2.48

g --------------------------------|
d --------------------------------|
a --------------------------------|
d ---55555/1212121212-12-11-9-----|

3.10

g ---------------------------------------|
d ---------------------------------------|
a ---------------------------------------|
d ---5*-----12*-----11*-----9-7*---------|


3.31

g ---------------------------------------|
d ---------------------------------------|
a ---------------------------------------|
d ---5*--------5*--------5*--------5*----|

3.42

g ----------------------------------------------------|
d ----------------------------------------------------|
a ----------------------------------------------------|
d ----5555555577777777999999991111111112121212--------|

4.03

g ----------------------------------------------------|
d ----------------------------------------------------|
a ----5*--------54*--------5*----------54*------------|
d --5--------25---------25----------25----------------|

g ----------------------------------------------------|
d ----------------------------------------------------|
a ----5*--------54*--------5*---------54*-------------|
d -25--------25---------25----------25----------------|

End with:

g ------------|
d ------------|
a ------------|
d ---25-------|
Добавлено: 01.03.2012
Другие материалы по этой песне:
  • Аккорды и текст

Страница создана 01.03.2012
http://primanota.ru/appleseed-cast/secret-chords.htm
Привет, Гость.
Предлагаем пройти революционный курс по гитаре.
Подарок от PrimaNota.Ru, забирай!