PrimaNota.ru - самый крупный в мире бесплатный архив песенных текстов, аккордов, табулатур и нот


Appleseed Cast - Santa Maria - текст песни, таба, видео

Регистрация Запомнить меня
Войти через:  Facebook Google Twitter Vk Yandex Mail.ru

Appleseed Cast - Santa Maria - текст песни, таба, видео

Печатать
Просмотров: 168
Уроки эстрадного вокала в Санкт-Петербурге
-------------------------------------------------------------------------------
                           SANTA MARIA - The Appleseed Cast
-------------------------------------------------------------------------------
Tabbed by: A.J. Conner
Email: ajconner123@gmail.com

Tuning: Guitar 1: DADGBE, Capo 7th Fret
        Guitar 2: CGDGBE, Capo 7th Fret

All fret numbers relative to capo.

  Guitar 1: Intro (4x)
e|---------------------------------------------------------------------------|
B|---------------------------------------------------------------------------|
G|------3-----3---------3-----3----------------------------------------------|
D|----3-----3-----3---3-----3-----3------------------------------------------|
A|--5-----5-----5---3-----3-----3--------------------------------------------|
E|---------------------------------------------------------------------------|

  Guitar 2: Intro (4x)
e|---------------------------------------------------------------------------|
B|---------------------------------------------------------------------------|
G|---------------------------------------------------------------------------|
D|---------------------------------------------------------------------------|
A|--7-7-7-7-7-7-7-7-5-5-5-5-5-5-5-5------------------------------------------|
E|---------------------------------------------------------------------------|

  Guitar 1: Verse (4x)
e|---------------------------------------------------------------------------|
B|---------------------------------------------------------------------------|
G|------0-------0-------0-----0----------------------------------------------|
D|----0---0---0---0---0-----0-----0------------------------------------------|
A|--2-------2-------0-----0--------------------------------------------------|
E|---------------------------------------------------------------------------|

  On the 4th time play this:
e|---------------------------------------------------------------------------|
B|----------------------------0--0-------------------------------------------|
G|------0-------0-------0-----0--0-------------------------------------------|
D|----0---0---0---0---0-----0------------------------------------------------|
A|--2-------2-------0-----0--------------------------------------------------|
E|---------------------------------------------------------------------------|


  Guitar 2: Verse (4x)
e|---------------------------------------------------------------------------|
B|---------------------------------------------------------------------------|
G|--------4------------------------------------------------------------------|
D|--5-4-0---5-4-0-4-0--------------------------------------------------------|
A|---------------------------------------------------------------------------|
E|---------------------------------------------------------------------------|

 Guitar 1: Chorus (strumming pattern not shown for chords)
e|----------------|----------------------------------------------------------|
B|o--0----0---0--o|----------------------------------------------------------|
G|---0----0---0---|----------------------------------------------------------|
D|o--0----0---0--o|----------------------------------------------------------|
A|---3----5---2---|--2-2-2-0-0-----0-2-2-2-0-0-----0-------------------------|
E|----------------|------------5-5-------------5-5---------------------------|

 Guitar 2: Chorus
e|---------------------------------------|-----------------------------------|
B|o-------------------------------------o|-----------------------------------|
G|--------0--------0-------0-------0-----|-----------------------------------|
D|o-----0---0----0---0---0---0---0---0--o|--0-0-0-0-0-0-0-0-0-0-0-0-0-0-0----|
A|---11-------11-------9-------9---------|--4-4-4-2-2-0-0-2-4-4-4-2-2-0-0----|
E|---------------------------------------|-----------------------------------|

  Guitar 1: Break (Guitar 2 rests)       Strum hard & fast (pattern not shown)
e|------------------------------------|--------------------------------------|
B|o----------------------------------o|--------------------------------------|
G|------------------------------------|--12-12-12-12-12-12-------------------|
D|o-----0-----0---------0-----0------o|---x--x--x--x--x--x-------------------|
A|----0-----0-----0---0-----0-----0---|--10-10-10-10-10-10-------------------|
E|--5-----5-----5---4-----4-----4-----|--------------------------------------|

  Guitar 1: Bridge   |---------strum pattern not shown--------------|
e|---------------------------------------|-----------------------------------|
B|o-------------------------------------o|o----------12--13--12---13--------o|
G|---0---0----0--0---12-12-12-12-12-12---|--12---14---x---x---x----x---------|
D|o--0---0----0--0----x--x--x--x--x--x--o|o--x----x---9--10---9---10--------o|
A|---x---2--2-0--0---10-10-10-10-10-10---|--10---12--------------------------|
E|---4h5----5-0--0-----------------------|-----------------------------------|

  Guitar 2: Bridge (strumming pattern not shown)
e|-------------------|
B|o--0---0---0---0--o|
G|---0---0---0---0---|
D|o--0---0---0---0--o|
A|---0---2---4---7---|
E|---0---2---4---7---|

  Guitar 1: Bridge ending
e|---------------------------------------------------------------------------|
B|-------------------------------0-------------------------------------------|
G|--0---0----0---0--0---0---0----0-------------------------------------------|
D|--0---0----0---0--0---0---0----0-------------------------------------------|
A|--x---2--2-0---0--0---x---2--2-0-------------------------------------------|
E|--4h5----5-0-2-0--0---4h5----5-0-------------------------------------------|

  Guitar 2: Bridge ending (strumming pattern not shown)
e|---------------------------------------------------------------------------|
B|--0---0---0---0------------------------------------------------------------|
G|--0---0---0---0------------------------------------------------------------|
D|--0---0---0---0------------------------------------------------------------|
A|--0---2---4---2------------------------------------------------------------|
E|--0---2---4---2------------------------------------------------------------|

  Guitar 1: Ending
e|------------------|--------------------------------------------------------|
B|o----------------o|--------------------------------------------------------|
G|------------------|--------------------------------------------------------|
D|o-----0-------0--o|--------------------------------------------------------|
A|----0-------0-----|--------------------------------------------------------|
E|--5-------4-------|--5-----------------------------------------------------|

  Guitar 2: Ending
e|---------------------------------------------------------------------------|
B|---------------------------------------------------------------------------|
G|-------0-------------0-------------0-------------0---0--------0---0--------|
D|-----0---0----0----0---0----0----0---0----0----0---0---0----0---0---0------|
A|--11-------11---11-------11---11-------11---11-----------11-----------11---|
E|---------------------------------------------------------------------------|

e|---------------------------------------------------------------------------|
B|---------------------------------------------------------------------------|
G|----0-------------0---0---0--------0---------------------------------------|
D|--0---0----0----0---0---0---0----0---0-------------------------------------|
A|--------11---11---------------11-------11----------------------------------|
E|---------------------------------------------------------------------------|

Order:
Intro
Verse (no singing yet)
Verse again (singing)
Chorus
Verse
Chorus
Break
Bridge & bridge ending
Ending


| /  slide up
| \  slide down
| h  hammer-on
| p  pull-off
| ~  vibrato
| +  harmonic
| x  Mute note
===============================================================================
Добавлено: 06.03.2012
Другие материалы по этой песне:

Страница создана 06.03.2012
http://primanota.ru/appleseed-cast/santa-maria-chords.htm
Привет, Гость.
Предлагаем пройти революционный курс по гитаре.
Подарок от PrimaNota.Ru, забирай!