PrimaNota.ru - самый крупный в мире бесплатный архив песенных текстов, аккордов, табулатур и нот


Appleseed Cast - Page - таба, видео

Регистрация Запомнить меня
Войти через:  Facebook Google Twitter Vk Yandex Mail.ru

Appleseed Cast - Page - таба, видео

Печатать
Просмотров: 155
The Appleseed Cast:  Two Conversations:  The Page


Intro & Verse

Guitar 1
e	|-----------|
B	|-----------|
G	|-----------|
D	|--5-5-5----|
A	|--5-5-5----|
E	|--3-0-2----|
^Repeat each chord by listening for the shift.

Guitar 2
e    |------------------------------------|
B    |------------------------------------|
G    |---4--7-4--4--0------0--0-----------|
D    |-5--5-----5--2--2--4--4--{0}--------|
A    |------------------------------------|
E    |------------------------------------|
^Last note a ghost note.  Repeat this as well, up until the Chorus.


Chorus:

Guitar 1
e	|-----------------|
B	|-----------------|
G	|-----------------|
D	|---5--5----------|
A	|---5--5----------|
E	|---5--3----------|
^Listen closely for shift, then return to Verse

e    |------------------------------------|
B    |------------------------------------|
G    |----9------9--9---4--7--4--4--------| X2
D    |--7--7--7--7---5----------5---------|
A    |------------------------------------|
E    |------------------------------------|
^Return to Verse


With the proper timing and practice, this song sounds great.  However, these tabs are
perfect, my friend and I figured them out over a period of time.  But hey, since we did
out a working version, why  not post it since there's barely any Appleseed Cast tabs?  
work well enough.

If you figure out the errors to this song, and know the proper correction, email me at colbertw@gmail.com

You can still email me over congratulations and lauding.  I wouldn't mind that.
Добавлено: 26.07.2012
Другие материалы по этой песне:
  • Аккорды и текст

Страница создана 02.06.2012
http://primanota.ru/appleseed-cast/page-chords.htm
Привет, Гость.
Предлагаем пройти революционный курс по гитаре.
Подарок от PrimaNota.Ru, забирай!