PrimaNota.ru - самый крупный в мире бесплатный архив песенных текстов, аккордов, табулатур и нот


Appleseed Cast - Mare Mortis - таба, видео

Регистрация Запомнить меня
Войти через:  Facebook Google Twitter Vk Yandex Mail.ru

Appleseed Cast - Mare Mortis - таба, видео

Печатать
Просмотров: 108
Уроки эстрадного вокала в Санкт-Петербурге
-------------------------------------------------------------------------------
                      MARE MORTIS - The Appleseed Cast
-------------------------------------------------------------------------------
Tabbed by: A.J. Conner
Email: ajconner123@gmail.com

Tuning: Guitar 1 - Drop D
        Guitar 2 - Can be in drop D but is not necessary

  Main Riff: Guitar 1 (w/ phaser and delay)
e|---------------------------------------------------------------------------|
B|----------5-----------------5----------------------------------------------|
G|----------2--5--------------2--5-------------------------------------------|
D|-----3--0----3--3-----3--0-----3--3----------------------------------------|
A|--------0----------------0-------------------------------------------------|
D|--0----------------0-------------------------------------------------------|

  Riff 2: Guitar 1
e|---------------------------------------------------------------------------|
B|---------------------------------------------------------------------------|
G|---------------------------------------------------------------------------|
D|--3--3-3-3-3/8--8-8-8-8-8-8\-----------------------------------------------|
A|--3--3-3-3-3/8--8-8-8-8-8-8\-----------------------------------------------|
D|--3--3-3-3-3/8--8-8-8-8-8-8\-----------------------------------------------|

  Back to Main Riff, except played off beat (?) not sure how to explain it

  For the ending, after Riff 2, play this with lots of fuzz:
  And slide up the fretboard, playing very fast
e|---------------------------------------------------------------------------|
B|--0--0-0-0-0-0-0-0--9-0-9-0-9-0--------end-on:---0-------------------------|
G|-10-10101010101010-101010101010-----------------21-------------------------|
D|--0--0-0-0-0-0-0-0--0-0-0-0-0-0------------------0-------------------------|
A|--8--8-8-8-8-8-8-8--8-8-8-8-8-8-----------------19-------------------------|
D|---------------------------------------------------------------------------|

  Main Riff: Guitar 2 (goes with Main Riff, Guitar 1)
e|--17--17-------------------------------------------------------------------|
B|---------------------------------------------------------------------------|
G|----------14-15-14--14--14-14-15-14-0--------------------------------------|
D|--------------------------------------15--15--15-17-15-14------------------|
A|---------------------------------------------------------------------------|
D|---------------------------------------------------------------------------|

  Riff 2: Guitar 2 (goes with Riff 2, Guitar 1)
e|---------------------------------------------------------------------------|
B|---------------------------------------------------------------------------|
G|---------14--14-------------14----0----0-----------------------------------|
D|--15--15--------15---15--15----15---15---15--------------------------------|
A|---------------------------------------------------------------------------|
D|---------------------------------------------------------------------------|
 
  Riff 3: Guitar 2 (goes with Riff 2, Guitar 1)
e|---------------------------------------------------------------------------|
B|---------------------------------------------------------------------------|
G|--14--14--14-0----15-----15-----15-----------------------------------------|
D|---------------15-----15-----15---15---------------------------------------|
A|---------------------------------------------------------------------------|
D|---------------------------------------------------------------------------|
 
  Riff 4: Guitar 2 (goes with Riff 2, Guitar 1)
e|---------------------------------------------------------------------------|
B|---------------------------------------------------------------------------|
G|-1010101010101010101010101010----------------------------------------------|
D|--x-x-x-x-x-x-x-x-x-x-x-x-x-x----------------------------------------------|
A|--8-8-8-8-8-8-8-8-8-8-8-8-8-8----------------------------------------------|
D|---------------------------------------------------------------------------|

  Riff 4 is also played at the ending, until it switches to (tremolo picking):

e|---0-0-0-0-0-0-0-0-0-0-0-0-0-0-0-0-0---------------------------------------|
B|--1717171717171717171717171717171717---------------------------------------|
G|---------------------------------------------------------------------------|
D|---------------------------------------------------------------------------|
A|---------------------------------------------------------------------------|
D|---------------------------------------------------------------------------|

That's it. The ending is very hard to pick apart so if you hear differently,
comment or email me. Enjoy!

| /  slide up
| \  slide down
| h  hammer-on
| p  pull-off
| ~  vibrato
| +  harmonic
| x  Mute note
===============================================================================
Добавлено: 26.02.2012
Другие материалы по этой песне:

Страница создана 26.02.2012
http://primanota.ru/appleseed-cast/mare-mortis-chords.htm
Привет, Гость.
Предлагаем пройти революционный курс по гитаре.
Подарок от PrimaNota.Ru, забирай!