PrimaNota.ru - самый крупный в мире бесплатный архив песенных текстов, аккордов, табулатур и нот


Appleseed Cast - Innocent Vigilant Ordinary - текст песни, таба, видео

Регистрация Запомнить меня
Войти через:  Facebook Google Twitter Vk Yandex Mail.ru

Appleseed Cast - Innocent Vigilant Ordinary - текст песни, таба, видео

Печатать
Просмотров: 102
this tab is surprisingly really easy and such a good song, so i'm kind of shocked
that it's not up here already. but here it is:

capo 4

***irreg. chord:
C -3-
  -3-
  -0-
  -2-
  -3-
  -0-

intro
---------------------------------------------------------------------------|
---------------------------------------------------------------------------|
---0-0----------------0-0------------------0-0-----------------------------|
---------------------------------------------------------------------------|
-2--2-2---222p0-----2--2-2---222p0-------2--2-2---222p0---2p-0----222p0----|
-------3--------3---------3--------3-3---------3--------3------3--------3--| x2

C          C
"oh, no," i said
C       G
i think about the times
G          G
the way you smile at me
C                 G
and how we always kiss

C              C
and how we drank the sun
C   G
and killed the night
G                        C
and fought the sleep and won
C                      G
and how we left it all unmade
G
it was only once

 (Em)     (G)    (Em)     (G)    (Em)     (G)
------------------------------------------------------------------|
------------------------------------------------------------------|
------------------------------------------------------------------|
-22-2222-00-0000-22-2222-00-0000-22-2222-00-0000------------------|
-22-2222-22-2222-22-2222-22-2222-22-2222-22-2222--2p-0----222p0---|
-00-0000-33-3333-00-0000-33-3333-00-0000-33-3333-------3--------3-|

C
G
now there's more than one
C
G
no, there's only one
C
G
now there's more than one
C
G

-----------------|
-----------------|
-----------------|
-----------------|
-2p-0----222p0---|
------3--------3-|

you're the only one
C
G
you're the only one
C
G
you're the only one

-----------------|
-----------------|
-----------------|
-----------------|
-2p-0----222p0---|
------3--------3-|

C
it's good to see
C            G
that you are doing well
G                    C
and well enough to be
C                  G
laughing here with me

C
'cause what we did
C            G
there's no excuse for it
G                     C
you know i love you so
C                              G
and it hurts to know what i did
G
it was only once

 (Em)     (G)    (Em)     (G)    (Em)     (G)
------------------------------------------------------------------|
------------------------------------------------------------------|
------------------------------------------------------------------|
-22-2222-00-0000-22-2222-00-0000-22-2222-00-0000------------------|
-22-2222-22-2222-22-2222-22-2222-22-2222-22-2222--2p-0----222p0---|
-00-0000-33-3333-00-0000-33-3333-00-0000-33-3333-------3--------3-|

C
i want you to know
C           G
that i will always love you
G                        C
and always be your friend
C                     G
and never leave you again

C
the past is past us now
G
so we can go
G
and we can move ahead
C                        G
i hope this letter gets read
G
if just only once


 (Em)     (G)    (Em)     (G)    (Em)     (G)
-------------------------------------------------------------------|
-------------------------------------------------------------------|
-------------------------------------------------------------------|
-22-2222-00-0000-22-2222-00-0000-22-2222-00-0000-------------------|
-22-2222-22-2222-22-2222-22-2222-22-2222-22-2222--2p-0----222p0----|
-00-0000-33-3333-00-0000-33-3333-00-0000-33-3333-------3--------3--| x2

end on Em

enjoy! any questions contact me via myspace.
www.myspace.com/ohnokelsey
Добавлено: 07.07.2012
Другие материалы по этой песне:
  • Аккорды и текст

Страница создана 07.07.2012
http://primanota.ru/appleseed-cast/innocent-vigilant-ordinary-chords.htm
Привет, Гость.
Предлагаем пройти революционный курс по гитаре.
Подарок от PrimaNota.Ru, забирай!