PrimaNota.ru - самый крупный в мире бесплатный архив песенных текстов, аккордов, табулатур и нот


Appleseed Cast - Hanging Marionette - таба, видео

Регистрация Запомнить меня
Войти через:  Facebook Google Twitter Vk Yandex Mail.ru

Appleseed Cast - Hanging Marionette - таба, видео

Печатать
Просмотров: 62
-------------------------------------------------------------------------------
                           HANGING MARIONETTE - The Appleseed Cast
-------------------------------------------------------------------------------
Tabbed by: A.J. Conner
E-mail: ajconner123@gmail.com

Tuning: Standard, CAPO 5TH FRET (all fret numbers relative to capo)

Lots of this was based on the video of the live version at Chop Suey. 

For Guitar 2, I couldn't really distinguish between what the guitar is doing
and what the keyboard (?) is doing, so I just tried to combine them as best I
could.

  Guitar 1 - Main Riff (play over and over during verse)
e|---------------------------------------------------------------------------|
B|---------------------------------------------------------------------------|
G|-------------0-----0-----0-----0-------------------------------------------|
D|-----------0-----0-----0-----0---------------------------------------------|
A|--2------3-----3-----3-----3-----------------------------------------------|
E|----3-0--------------------------------------------------------------------|
  
  Every third time play this as a variation on the main riff:                               
e|---------------------------------------------------------------------------|
B|---------------------------------------------------------------------------|
G|------0-----0-----0-----0-----0-------0-----0-----0-----0------------------|
D|----0-----0-----0-----0-----0-------0-----0-----0-----0--------------------|
A|--2-----2-----2-----2-----2-----2-3-----3-----3-----3-----2----------------|
E|------------------------------------------------------------3-0------------|

  Guitar 2 - Verse Riff (play in conjuction with Guitar 1) Play over and over
e|---------------------------------------------------------------------------|
B|---------------------------------------------------------------------------|
G|--0------------------------------------------------------------------------|
D|----4-0----7--9------------------------------------------------------------|
A|---------------------------------------------------------------------------|
E|---------------------------------------------------------------------------|

  Guitar 1 - Build-up Riff
e|---------------------------------------------------------------------------|
B|---------------------------------------------------------------------------|
G|------0-----0---0-----0-----0---0-----0-----0---0-----0-----0----0---------|
D|----0-----0---------0-----0---------0-----0---------0-----0----------------|
A|--5-----5-----5---5-----5-----5---7-----7-----7---7-----7-----7------------|
E|---------------------------------------------------------------------------|
  
  Guitar 1 - Build-up Riff (cont.)
e|---------------------------------------------------------------------------|
B|---------------------------------------------------------------------------|
G|-----0------0----0------0------0-----0------0------0----0------0------0---0|
D|---0------0-----------0------0------------0------0-----------0------0------|
A|10-----10-----10---10-----10------10---14-----14-----14---14-----14-----14-|
E|---------------------------------------------------------------------------|

  Guitar 2 - Build-up Riff (repeat until end of Build-up)
e|---------------------------------------------------------------------------|
B|---------------------------------------------------------------------------|
G|--0-----0-----0------------------------------------------------------------|
D|----4-0---4-0---4-0--------------------------------------------------------|
A|---------------------------------------------------------------------------|
E|---------------------------------------------------------------------------|

  Guitar 1 - Build-up 2 Riff
e|---------------------------------------------------------------------------|
B|--0-0-0-0-0-0-0-0-0-0-0-0-0-0-0-0-0-0-0-0-0-0-0-0-0-0-0-0-0-0-0-0-0-0------|
G|--0-0-0-0-0-0-0-0-0-0-0-0-0-0-0-0-0-0-0-0-0-0-0-0-0-0-0-0-0-0-0-0-0-0------|
D|--0-0-0-0-0-0-0-0-0-0-0-0-0-0-0-0-0-0-0-0-0-0-0-0-0-0-0-0-0-0-0-0-0-0------|
A|--5-5-5-5-5-5-5-5-5-5-5-5-5-5-5-5-5/7-7-7-7-7-7-7-7-7-7-7-7-7-7-7-7/10-----|
E|---------------------------------------------------------------------------|

  Guitar 1 - Build-up 2 Riff (cont.)
e|---------------------------------------------------------------------------
B|-0--0--0--0--0--0--0--0--0--0--0--0--0--0--0--0--0--0--0--0--0--0--0-0-0-0-
G|-0--0--0--0--0--0--0--0--0--0--0--0--0--0--0--0--0--0--0--0--0--0--0-0-0-0-
D|-0--0--0--0--0--0--0--0--0--0--0--0--0--0--0--0--0--0--0--0--0--0--0-0-0-0-
A|-10-10-10-10-10-10-10-10-10-10-10-10-10-10-14-14-14-14-14-14-14-14-5-5-5-5-
E|---------------------------------------------------------------------------

(end build-up) 
e---------|
B-0-0-0-0-|
G-0-0-0-0-|
D-0-0-0-0-|
A-2-2-2-2-|
E---------|

  Guitar 2 - Build-up 2 Riff
e|---------------------------------------------------------------------------|
B|---------------------------------------------------------------------------|
G|---------------------------------------------------------------------------|
D|-0-0-0-0-0-0-0-0-0-0-0-0-0-0-0-0-0h2-2-2-2-2-2-2-2-2-2-2-2-2-2-2-2/5-------|
A|---------------------------------------------------------------------------|
E|---------------------------------------------------------------------------|

  Guitar 2 - Build-up 2 Riff (cont.)
e|---------------------------------------------------------------------------|
B|---------------------------------------------------------------------------|
G|---------------------------------------------------------------------------|
D|-5-5-5-5-5-5-5-5-5-5-5-5-5-5-9-9-9-9-9-9-9-9-0-0-0-0-----------------------|
A|-----------------------------------------------------2-2-2-2---------------|
E|---------------------------------------------------------------------------|

  Guitar 1 - Pre-Chorus Riff (Play 4 times, on 4th time don't play last note)
e|-----3/5-------------------------------------------------------------------|
B|----------3-1-0------------------------------------------------------------|
G|--0-------------2-0--------------------------------------------------------|
D|--0-----------------2-0----------------------------------------------------|
A|--2---------------------2--------------------------------------------------|
E|--3-----------------------3------------------------------------------------|

  Guitar 2 - Pre-Chorus Riff (Play 4 times)
e|--3-2-0--------------------------------------------------------------------|
B|--------3------------------------------------------------------------------|
G|---------------------------------------------------------------------------|
D|----------0----------------------------------------------------------------|
A|--3------------------------------------------------------------------------|
E|---------------------------------------------------------------------------|

  Both Guitars - Chorus (These are the chords, listen to song for strumming
  pattern). 
e|--0--0--0--0---------------------------------------------------------------|
B|--1--1--1--1---------------------------------------------------------------|
G|--0--0--0--0---------------------------------------------------------------|
D|--2--0--2--0---------------------------------------------------------------|
A|--3--2--0--2---------------------------------------------------------------|
E|---------------------------------------------------------------------------|

  End with five wallops of an open G (relative to capo). 

  That's it! I hope this was helpful. It's a difficult song to pick apart since
  the guitar melodies are so intricate, but I did my best. Email or comment with
  any corrections. Thanks!

************************************

| /   slide up
| h   hammer-on


************************************
Добавлено: 13.09.2013
Вам также может быть интересно:
Другие материалы по этой песне:
  • Аккорды и текст

Страница создана 13.09.2013
http://primanota.ru/appleseed-cast/hanging-marionette-chords.htm
Привет, Гость.
Предлагаем пройти революционный курс по гитаре.
Подарок от PrimaNota.Ru, забирай!